Your One-Stop Source For
Music Lyrics
Bass and Guitar Tabs
and More...
>Music Lyrics Bass and Guitar Tabs

 

The Tabs Are Below

Learn To Read Tab
Chords Handbook
Corrections & Additions
Get Official Tab
Nickelback tabs @ 911Tabs

Nickelback

"Throw Yourself Away"

From the album "The Long Road"

Tabbed by Joe Costello (joseph.costello@villanova.edu)

 

Tuning: Drop-C (low to high: C G C F A D)

 

Symbols Used:

h = hammer-on

. = palm-mute

X = muted strings

 

Intro: Riff 1:

(Let the first open C chord ring)

(2x)

D|-------------------------------------------------|

A|--3-------------------------3--------------------|

F|--2-------------------------2---------------0---*|

C|--0-------------------------0-----------0h2-----*|

G|--0--------0-0-0--0-0-0-----0--------------------|

C|--0--------0-0-0--0-0-0---0-0--------0-----------|

. . . . . . .

 

Verse 1- Play Riff 1 2x

Fill 1: (at 0:24)

D|-------------------------------------------------|

A|--3-------------------------3--------------------|

F|--2-------------------------2--------------------|

C|--0-------------------------0---3h5-5-5-3h5-5-5--|

G|--0--------0-0-0--0-0-0-----0---3h5-5-5-3h5-5-5--|

C|--0--------0-0-0--0-0-0---0-0---3h5-5-5-3h5-5-5--|

. . . . . .

 

Chorus

Part 1- Riff 2:

D|---------------------------------------------------------------------------------------------|

A|---------------------------------------------------------------------------------------------|

F|---------------------------------------------------------------------------------------------|

C|---8--8--8--8--8--8--8--8--3--3--3--3--3--3--3--3--3h5-5--X-X--X-3h5-5-X-X--X-3h5-5-5-5--3---|

G|---8--8--8--8--8--8--8--8--3--3--3--3--3--3--3--3--3h5-5--X-X--X-3h5-5-X-X--X-3h5-5-5-5--3---|

C|---8--8--8--8--8--8--8--8--3--3--3--3--3--3--3--3--3h5-5--X-X--X-3h5-5-X-X--X-3h5-5-5-5--3---|

"why the hell don't you throw yourself away burn it down"

 

Part 2- Riff 3:

D|-------------------------------------------------------------------|

A|-------------------------------------------------------------------|

F|-------------------------------------------------------------------|

C|---0-------------0----------------0--0-3-3-3-3-3-3-3-3-3-3-3-3--5--|

G|---0------8--8---0-----5-8-5------0--0-3-3-3-3-3-3-3-3-3-3-3-3--5--|

C|---0-------------0----------------0--0-3-3-3-3-3-3-3-3-3-3-3-3--5--|

. . . . . . . . . . . .

 

D|-------------------------------------------------------------------|

A|-------------------------------------------------------------------|

F|-------------------------------------------------------------------|

C|---0-------------0----------------0--0-3-3-3-3-3-3-3-3-3-3-3-3--5--|

G|---0------8--8---0----------------0--0-3-3-3-3-3-3-3-3-3-3-3-3--5--|

C|---0-------------0----------------0--0-3-3-3-3-3-3-3-3-3-3-3-3--5--|

. . . . . . . . . . . .

-end of Riff 3

 

Then play Riff 2 once to end the chorus.

 

Solo- I haven't figured it out yet. I'll work on it but if anyone out there knows it, send it in.

Rythym Guitar plays Riff 1 during the solo.

 

*These are all the riffs in this song. There are variations to the chorus the 3rd time through. Listen

to the song to figure the order out, it's not bad.

But if there's any questions, the solo, or corrections e-mail me.

 

-Joe

 

 

Return to my Nickelback tabs page

The Tablature is Copyright its respective owners.

Sign Up For My Newsletter
Subscribe | Unsubscribe

Site Map | Disclaimer | Privacy Policy | Media Kit | Submissions/Corrections

Website © 2000-2014 mattsmusicpage.com. All rights reserved.

Legal & DMCA: Matt's Music Page has been providing lyrics and tabs in a legal way, paying royalties each year to a few organizations. Then, all lyrics and tabs were removed from the site. Now, there's a new owner to the site, which purchased it August 26, 2014, and he is in negotiation to obtain licensing from BMI at the moment. If you have a specific DMCA request -- please do not hesitate to contact me via the contact button on top. I will do my very best to keep this site fully legal.

Get our toolbar!

 


MTV Vinyl MAGNET - Vintage Music Television Logo
$
MTV Vinyl MAGNET - Vintage Music Television Logo  picture


MTV Fridge - MAGNET - Vintage Music Television Logo Vinyl Locker Vehicle
$
 MTV Fridge - MAGNET - Vintage Music Television Logo Vinyl Locker Vehicle  picture


VINTAGE MUSIC JAPAN 8" HIGH MUSICIANS ON BARRELS 5 PIECE SET
$
VINTAGE MUSIC JAPAN 8


VINTAGE MUSIC HALL FRENCH BOOK PHOTOS BYB. M. BERNARD- BBA-41
$
VINTAGE MUSIC HALL FRENCH BOOK PHOTOS BYB. M. BERNARD- BBA-41 picture


Working Sankyo Vintage Automated Acrobat Music Box -
$
Working Sankyo Vintage Automated Acrobat Music Box - picture


Vintage Music Box Bonnet Birds Bellmawr NJ Plays Trac The world To Sing
$
Vintage Music Box Bonnet Birds Bellmawr NJ Plays Trac The world To Sing picture


Vintage Copper Saloon Piano Player ~ Sankyo Music Box
$
Vintage Copper Saloon Piano Player ~ Sankyo Music Box picture


Vintage Music Box Beautiful Mother And Her Child Stained Glass
$
Vintage Music  Box Beautiful  Mother  And Her Child  Stained Glass picture


Vintage Christian Religious Decor Music Box And Collectibles
$
Vintage Christian Religious Decor Music Box And Collectibles picture


LOT OF 40 VINTAGE MUSIC SHEETS - SEE PICS - OVER THE RAINBOW & MUCH MORE -TUB QQ
$
LOT OF 40 VINTAGE MUSIC SHEETS - SEE PICS - OVER THE RAINBOW & MUCH MORE -TUB QQ picture