Your One-Stop Source For
Music Lyrics
Bass and Guitar Tabs
and More...
Music Lyrics Bass and Guitar Tabs

 

The Nickelback Guitar Tabs Are Below

Learn To Read Tab
Chords Handbook
Corrections & Additions
Get Official Tab
Nickelback tabs @ 911Tabs

This Afternoon - Nickelback

-------------------------------------------------------------------------------

Tabbed by: Tobias Stifler

 

Tuning: Standard

 

 

Intro (2x)

 

Guitar 1 (0:03 - 0:15)

 

e|-33333-22222----------2222|

B|-33333-33333-33333333-3333|

G|-44444-22222-00000000-2222|

D|-55555-44444-22222222-0000|

A|-55555-55555-33333333-----|

E|-33333-22222--------------|

 

Guitar 2 (0:08 - 0:09 ) (0:10 - 0:14)

 

e|-----333| e|---------------|

B|-222-333| B|---------------|

G|-000-222| G|-3/4-7-2-0---4~|

D|-222-000| D|-----------0---|

A|-333----| A|---------------|

E|--------| E|---------------|

 

Verse (0:15 - 0:51)

 

Guitar 1 (6x) (0:15 - 0:51)

 

e|-333333-222222-00000000-2222|

B|-333333-333333-11111111-3333|

G|-444444-222222-00000000-2222|

D|-555555-444444-22222222-0000|

A|-555555-555555-33333333-----|

E|-333333-222222--------------|

 

Guitar 2 (0:34 - 0:39) (0:48 - 0:51)

 

e|---------------------------------------| e|------------------------|

B|---------------------------------------| B|------------------------|

G|---------------------------------------| G|------------------------|

D|-555555----------------5-555-/9-7-5-2-5| D|-------------5-7/9-7-5p7|

A|-555555-555555-3-3-3-x---333-----------| A|-3-3-3-3-3/7------------|

E|-333333--------------------------------| E|------------------------|

xxxx xxxx x x x x x x x x

 

Pre Chorus (0:52 - 1:03)

 

Guitar 1 (0:51 - 1:03)

 

e|------------------------------|

B|-33-----------33--------------|

G|-xx-77--------xx----7777777777|

D|-55-77-55-22--55-55-7777777777|

A|-33-55-55-22--33-55-5555555555|

E|-------33-00-----33-----------|

 

Guitar 2 (x) (0:51 - 1:03)

 

e|-------|

B|-------|

G|-777777|

D|-xxxxxx|

A|-555555|

E|-------|

 

Chorus (1:03 - 1:23)

 

Guitar 1 (2x)

 

e|--------------------|

B|--------------------|

G|------7777------5555|

D|-2222-7777-5555-5555|

A|-2222-5555-5555-3333|

E|-0000------3333-----|

 

'just sitting around hanging out this afternoon' (1:16 - 1:23)

 

Guitar 1 (1:17 - 1:23)

 

e|-33333-22222-----------|

B|-33333-33333-1111111111|

G|-44444-22222-0000000000|

D|-55555-44444-2222222222|

A|-55555-55555-3333333333|

E|-33333-22222-----------|

 

Guitar 2 (1:21 - 1:23)

 

e|-------------|

B|-------------|

G|-------------|

D|-5-5-5-5/9-5~|

A|-------------|

E|-------------|

x x x

 

Verse 2 (1:23 - 1:46)

 

Guitar 1 (x) (1:23 - 1:46)

 

e|-333333-222222-00000000-2222|

B|-333333-333333-11111111-3333|

G|-444444-222222-00000000-2222|

D|-555555-444444-22222222-0000|

A|-555555-555555-33333333-----|

E|-333333-222222--------------|

 

Guitar 2 (1:30 - 1:35) (1:37 - 1:38) (1:40 - 1:42)

- 1:46)

 

e|---------------------------------------------| e|------| e|-----------| e|------------|

B|---3---3333---3---3333---3---3333----3---3333| B|------| B|-1---3-----| B|------------|

G|-------0000-------xxxx-------0000--------0000| G|---7--| G|-0-0-2-0-4~| G|------------|

D|-------0000-------0000-------xxxx--------xxxx| D|-----7| D|-----------| D|-7b9-7-5-7-5|

A|-----------------------3---3-3333--3---3-3333| A|------| A|-----------| A|------------|

E|-3---3------2---2----------------------------| E|-8----| E|-----------| E|------------|

 

Pre Chorus (1:47 - 1:59)

 

Guitar 1 (1:47 - 1:59)

 

e|------------------------------|

B|-33-----------33--------------|

G|-xx-77--------xx----7777777777|

D|-55-77-55-22--55-55-7777777777|

A|-33-55-55-22--33-55-5555555555|

E|-------33-00-----33-----------|

 

Guitar 2 (x) (1:47 - 1:59)

 

e|-------|

B|-------|

G|-777777|

D|-xxxxxx|

A|-555555|

E|-------|

 

Chorus 2 (1:59 - 2:34)

 

Guitar 1 (4x) (1:59 - 2:24)

 

e|--------------------|

B|--------------------|

G|------7777------5555|

D|-2222-7777-5555-5555|

A|-2222-5555-5555-3333|

E|-0000------3333-----|

 

'just sitting around hanging out this afternoon' (2:26 - 2:34)

 

Guitar 1 (2:27 - 2:34)

 

e|-333333-222222-00000000-2222|

B|-333333-333333-11111111-3333|

G|-444444-222222-00000000-2222|

D|-555555-444444-22222222-0000|

A|-555555-555555-33333333-----|

E|-333333-222222--------------|

 

Guitar 2 (2:31 - 2:34)

 

e|-----------------|

B|-----------------|

G|-----------------|

D|----5---7b9-7-5p7|

A|-/7---7----------|

E|-----------------|

 

Outro (2:34 - 3:15)

 

Guitar 1 (4x) (2:34 - 2:58) (3:04 - 3:15)

 

e|-0000-2222-3322-0000| e|-3333-2222-0000-2222-3333-2222-0000-2222|

B|-1111-3333-3333-1111| B|-3333-3333-1111-3333-3333-3333-1111-3333|

G|-0000-2222-0022-0000| G|-4444-2222-0000-2222-4444-2222-0000-2222|

D|-2222-0000-0000-2222| D|-5555-4444-2222-0000-5555-4444-2222-0000|

A|-3333------22xx-3333| A|-5555-5555-3333------5555-5555-3333-----|

E|-----------3322-----| E|-3333-2222-----------3333-2222----------|

xxxx xxxx xxxx

 

Pre Chorus (3:15 - 3:27)

 

Guitar 1 (3:15 - 3:27)

 

e|------------------------------|

B|-33-----------33--------------|

G|-xx-77--------xx----7777777777|

D|-55-77-55-22--55-55-7777777777|

A|-33-55-55-22--33-55-5555555555|

E|-------33-00-----33-----------|

 

Guitar 2 (x) (3:15 - 3:27)

 

e|-------|

B|-------|

G|-777777|

D|-xxxxxx|

A|-555555|

E|-------|

 

End Chorus (3:27 - 4:34)

 

Guitar 1 (4x) (3:27 - 3:53)

 

e|--------------------|

B|--------------------|

G|------7777------5555|

D|-2222-7777-5555-5555|

A|-2222-5555-5555-3333|

E|-0000------3333-----|

 

'just sitting around hanging out this afternoon' (3:55 - 4:34)

 

Guitar 1 (3:55 - 4:34)

 

e|-333333-222222-00000000-2222|

B|-333333-333333-11111111-3333|

G|-444444-222222-00000000-2222|

D|-555555-444444-22222222-0000|

A|-555555-555555-33333333-----|

E|-333333-222222--------------|

 

Guitar 2 (4:00 -

 

e|------------------|--------------------------|-------------------------|---------|

B|------------------|--------------------------|-------------------------|---------|

G|-------------7---7|------------7-----7-------|------------7------------|---------|

D|-5-7/9-5---9---9--|------7p9h7---9h7---9h7---|------7p9h7---9h7-7p9-5--|---------|

A|---------7--------|-7p10-------------------10|-7p10-------------------7|-7-------|

E|------------------|--------------------------|-------------------------|---------|

 

---------------|------------------------|

---------------|------------------------|

-7-----7-------|---------7--------------|

5p7h5---7h5---7h5-5~|---5p7h5---7h5-5---|

---------------|-7----------------------|

---------------|------------------------|

 

| / slide up

| h hammer-on

| p pull-off

| ~ vibrato

| x Mute note

Return to my Nickelback Guitar Tabs page

The Nickelback Guitar Tablature is Copyright its respective owners.

Sign Up For My Newsletter
Subscribe | Unsubscribe

Site Map | Disclaimer | Privacy Policy | Media Kit | Submissions/Corrections

Website © 2000-2014 mattsmusicpage.com. All rights reserved.

Legal & DMCA: Matt's Music Page has been providing lyrics and tabs in a legal way, paying royalties each year to a few organizations. Then, all lyrics and tabs were removed from the site. Now, there's a new owner to the site, which purchased it August 26, 2014, and he is in negotiation to obtain licensing from BMI at the moment. If you have a specific DMCA request -- please do not hesitate to contact me via the contact button on top. I will do my very best to keep this site fully legal.

Get our toolbar!