Your One-Stop Source For
Music Lyrics
Bass and Guitar Tabs
and More...
Music Lyrics Bass and Guitar Tabs

 

The Nickelback Guitar Tabs Are Below

Learn To Read Tab
Chords Handbook
Corrections & Additions
Get Official Tab
Nickelback tabs @ 911Tabs

Shakin' Hands - Nickelback

-------------------------------------------------------------------------------

Tabbed by: nodyarg

Email:nodyarg33@hotmail.com

 

Tuning: Drop D Tuning

 

*Intro*

 

Riff 1

e|---------------------------|

B|---------------------------|

G|---------------------------|

D|------3-------3-----0----0-| X2

A|--3h5---5p3----------------|

D|------------3---3p0--------|

 

Riff 2

e|--------------------------------|

B|--------------------------------|

G|--------------------------------|

D|-10-12-15-12-10-0-3----0----0---| X2

A|-10-12-15-12-10-0-3----0----0---|

D|-10-12-15-12-10-0-3----0----0---|

Hey!

*Verse 1*

 

Riff 1

e|---------------------------|

B|---------------------------|

G|---------------------------|

D|------3-------3-----0----0-| X4

A|--3h5---5p3----------------|

D|------------3---3p0--------|

 

 

Riff 3

e|---------------------------|

B|---------------------------|

G|---------------------------|

D|------3--------3----0----0-| X4

A|--3h5---5p3----3----0----0-|

D|------------0--3----0----0-|

 

*Interlude*

 

Riff 2

e|--------------------------------|

B|--------------------------------|

G|--------------------------------|

D|-10-12-15-12-10-0-3----0----0---| X2

A|-10-12-15-12-10-0-3----0----0---|

D|-10-12-15-12-10-0-3----0----0---|

Hey!

e|----------------------|

B|----------------------|

G|----------------------|

D|-10-12-15-12-10-0-3---|

A|-10-12-15-12-10-0-3---|

D|-10-12-15-12-10-0-3---|

 

 

*Chorus*

 

e|----------------------------------------------------------------|

B|----------------------------------------------------------------|

G|----------------------------------------------------------------|

D|-------------------------------------------------------------0--|

A|-3-5---5-3-5---5-3-5---5-3-5---5-3-5---5-3-5---5-3-5---5-3-5-0--|

D|-----0-------0-------0-------0-------0-------0-------0-------0--|

P.M...........................................................|

 

e|-------------------------------------------------------------|

B|-------------------------------------------------------------|

G|-------------------------------------------------------------|

D|----------------------------3-----------------------------0--| X2

A|--5-3-5---5-3-5---5-3-5-3---3---5-3-5---5-3-----3---5-3---0--|

D|----------------------------3---------------5-3---0-------0--|

 

e|-----------------------------------------------------------------|

B|-----------------------------------------------------------------|

G|-----------------------------------------------------------------|

D|----------------------------3----------------------3-----0----0--|

A|--5-3-5---5-3-5---5-3-5-3---3---5-3-5---5-3--------3-----0----0--|

D|----------------------------3----------------------3-----0----0--|

Hey!

 

Riff 3

e|---------------------------|

B|---------------------------|

G|---------------------------|

D|------3--------3----0----0-|

A|--3h5---5p3----3----0----0-|

D|------------0--3----0----0-|

Hey!

 

*Verse 2*

 

Riff 1

e|---------------------------|

B|---------------------------|

G|---------------------------|

D|------3-------3-----0----0-| X4

A|--3h5---5p3----------------|

D|------------3---3p0--------|

 

 

Riff 3

e|---------------------------|

B|---------------------------|

G|---------------------------|

D|------3--------3----0----0-| X4

A|--3h5---5p3----3----0----0-|

D|------------0--3----0----0-|

 

*Interlude*

 

Riff 2

e|--------------------------------|

B|--------------------------------|

G|--------------------------------|

D|-10-12-15-12-10-0-3----0----0---| X2

A|-10-12-15-12-10-0-3----0----0---|

D|-10-12-15-12-10-0-3----0----0---|

Hey!

e|----------------------|

B|----------------------|

G|----------------------|

D|-10-12-15-12-10-0-3---|

A|-10-12-15-12-10-0-3---|

D|-10-12-15-12-10-0-3---|

 

 

*Chorus*

 

e|----------------------------------------------------------------|

B|----------------------------------------------------------------|

G|----------------------------------------------------------------|

D|-------------------------------------------------------------0--|

A|-3-5---5-3-5---5-3-5---5-3-5---5-3-5---5-3-5---5-3-5---5-3-5-0--|

D|-----0-------0-------0-------0-------0-------0-------0-------0--|

P.M...........................................................|

 

e|-------------------------------------------------------------|

B|-------------------------------------------------------------|

G|-------------------------------------------------------------|

D|----------------------------3-----------------------------0--| X2

A|--5-3-5---5-3-5---5-3-5-3---3---5-3-5---5-3-----3---5-3---0--|

D|----------------------------3---------------5-3---0-------0--|

 

e|-----------------------------------------------------|

B|-----------------------------------------------------|

G|-----------------------------------------------------|

D|----------------------------3----------------------3-|

A|--5-3-5---5-3-5---5-3-5-3---3---5-3-5---5-3--------3-|

D|----------------------------3----------------------3-|

 

*Solo*

e|-------------------------------------------------------|

B|----------------------------12b------------------------|

G|----------------------------12b-----10-10h12p10--------|

D|------------------------------------------------10h12--|

A|-12p10h12-12p10-10h12p10-------------------------------|

D|-------------------------12----------------------------|

 

e|-----------------------------------------------|

B|-----------------------------------------12b---|

G|------7---------7--------7----7-12b---10-12b---|

D|-7h10------7h10-----7h10---10------------------|

A|-----------------------------------------------|

D|-----------------------------------------------|

 

e|-------------------------------------------------------------------------|

B|------13----13----------------13-----13-----13-----13-----11-----11----11|

G|--14-----14----14-14~~~~-13h14--13h14--13h14--13h14--13h14--13h14-13h14--|

D|-------------------------------------------------------------------------|

A|-------------------------------------------------------------------------|

D|-------------------------------------------------------------------------|

 

e|-------------------------------------------------------------------|

B|-----11-----11-----11----------------------------------------------|

G|13h14--13h14--13h14--14-14-14p13p12-12p10------12p10---------------|

D|------------------------------------------12p10-----------10-10h12-|

A|----------------------------------------------------12p10----------|

D|-------------------------------------------------------------------|

 

e|-----------------------------------------------------------------15b-|

B|------------------13b---10h13p12p10----------------------------------|

G|-10-----12b-12-10-------------------12-12b-10--12p10--------10-------|

D|-----10--------------------------------------12-----12p10h12--12-----|

A|---------------------------------------------------------------------|

D|---------------------------------------------------------------------|

 

e|--16-15------------------------------|

B|-------------------------------------|

G|---------12b-10---12b-10-------------|

D|----------+-----12-+------12---12\---|

A|-------------------------------------|

D|-------------------------------------|

 

*Bridge*

 

e|----------------------------------------------------------------|

B|----------------------------------------------------------------|

G|----------------------------------------------------------------|

D|-----------------------------------------------5-5-5-5-5-5-5-5--|

A|-3-5---5-3-5---5-3-5---5-3-5---5-3-5---5-3-5---5-5-5-5-5-5-5-5--|

D|-----0-------0-------0-------0-------3-------3-5-5-5-5-5-5-5-5--|

P.M...............................................................

 

e|----------------------------------------------------------|

B|----------------------------------------------------------|

G|----------------------------------------------------------|

D|------------------------------------------------------x-0-|

A|-3-5---5-3-5---5-3-5---5-3-5---5-3-5---5-3-5----------x-0-|

D|-----0-------0-------0-------0-------3-------3--------x-0-|

P.M..............................................|

 

*Outro Chorus*

e|-------------------------------------------------------------|

B|-------------------------------------------------------------|

G|-------------------------------------------------------------|

D|----------------------------3-----------------------------0--| X3

A|--5-3-5---5-3-5---5-3-5-3---3---5-3-5---5-3-----3---5-3---0--|

D|----------------------------3---------------5-3---0-------0--|

 

e|------------------------------------------------|

B|------------------------------------------------|

G|------------------------------------------------|

D|------------------------------3-----------------|

A|--5-3-5---5-3-5---5-3-5-3-----3---5-3-5---5-3---|

D|------------------------------3-----------------|

 

 

| / slide up

| \ slide down

| h hammer-on

| p pull-off

| ~ vibrato

| + harmonic

| x Mute note

===============================================================================

Return to my Nickelback Guitar Tabs page

The Nickelback Guitar Tablature is Copyright its respective owners.

Sign Up For My Newsletter
Subscribe | Unsubscribe

Site Map | Disclaimer | Privacy Policy | Media Kit | Submissions/Corrections

Website © 2000-2014 mattsmusicpage.com. All rights reserved.

Legal & DMCA: Matt's Music Page has been providing lyrics and tabs in a legal way, paying royalties each year to a few organizations. Then, all lyrics and tabs were removed from the site. Now, there's a new owner to the site, which purchased it August 26, 2014, and he is in negotiation to obtain licensing from BMI at the moment. If you have a specific DMCA request -- please do not hesitate to contact me via the contact button on top. I will do my very best to keep this site fully legal.

Get our toolbar!