Your One-Stop Source For
Music Lyrics
Bass and Guitar Tabs
and More...
Music Lyrics Bass and Guitar Tabs

 

The Nickelback Guitar Tabs Are Below

Learn To Read Tab
Chords Handbook
Corrections & Additions
Get Official Tab
Nickelback tabs @ 911Tabs

Next Go Round

Nickelback

Dark Horse (2008)

 

Next Go Round: written by Chad Kroeger and Nickelback

 

NOTE: I do not know the solo, but the rest is all there.

 

GTR I - Drop C Tuning "Chad Kroeger" (d,A,F,C,G,C)

GTR II - Drop C Tuning "Ryan Peake" (d,A,F,C,G,C)

GTR III - Drop C Tuning "Solo Guitar" (d,A,F,C,G,C)

 

 

GTR I

d|-------------------------------------------------|

A|-------------------------------------------------|

F|--5-----------------------5----------------------|

C|--4-----------------------4----------------------|

G|--5-----0--0--0-----0-----5-----0--0--0-----0----|

C|--0-----0--0--0-----0-----0-----0--0--0-----0----|

. . . . . . . .

 

GTR I

d|-------------------------------------------------|

A|-------------------------------------------------|

F|--5----------------------------------------------|

C|--4----------------------------------------------|

G|--5-----0--0--0-----0----------------------------|

C|--0-----0--0--0-----0----------------------------|

| . . . .

|GTR II

d|-------------------------------------------------|

A|-------------------------------------------------|

F|-------------------------------------------------|

C|-------------------------------------------------|

G|-------------------------10----10----10-----9----|

C|--------------------------8-----8-----8-----7----|

 

GTR II

d|-------------------------------------------------|

A|-------------------------------------------------|

F|--5-----------------------5----------------------|

C|--4-----------------------4----------------------|

G|--5-----0--0--0-----0-----5-----0--0--0-----0----|

C|--0-----0--0--0-----0-----0-----0--0--0-----0----|

. . . . . . . .

 

GTR I

d|-------------------------------------------------|

A|-------------------------------------------------|

F|-------------------------------------------------|

C|-------------------------------------------------|

G|-------------------------10----10----10-----9----|

C|--------------------------8-----8-----8-----7----|

|

|GTR II

d|-------------------------------------------------|

A|-------------------------------------------------|

F|--5----------------------------------------------|

C|--4----------------------------------------------|

G|--5-----0--0--0-----0----------------------------|

C|--0-----0--0--0-----0----------------------------|

. . . .

 

GTR I,II

d|-------------------------------------------------|

A|-------------------------------------------------|

F|--5-----------------------5----------------------|

C|--4-----------------------4----------------------|

G|--5-----0--0--0-----0-----5-----0--0--0-----0----|

C|--0-----0--0--0-----0-----0-----0--0--0-----0----|

. . . . . . . .

 

GTR I,II

d|-------------------------------------------------|

A|-------------------------------------------------|

F|--5----------------------------------------------|

C|--4----------------------------------------------|

G|--5-----0--0--0-----0----10----10----10-----9----|

C|--0-----0--0--0-----0-----8-----8-----8-----7----|

. . . .

 

GTR I,II

d|-------------------------------------------------|

A|-------------------------------------------------|

F|-------------------------------------------------|

C|-------------------------------------------------|

G|--0-----------------------0----------------------|

C|--0-----------------------0----------------------|

GTR I,II

d|-------------------------------------------------|

A|-------------------------------------------------|

F|-------------------------------------------------|

C|-------------------------------------------------|

G|--0----------------------------------------------|

C|--0----------------------------------------------|

GTR I,II

d|-------------------------------------------------|

A|-------------------------------------------------|

F|-------------------------------------------------|

C|--------------------------5-----5-----5-----7----|

G|--------0-----3-----5-----3-----3-----3-----5----|

C|--------0-----3-----5----------------------------|

 

Pre Verse

 

GTR I

d|-------------------------------------------------|

A|-------------------------------------------------|

F|--------------5-----------5-----------------5----|

C|--------------4-----------4-----------------4----|

G|--0-----0-----5-----0-----5--0--0-----0-----5----|

C|--0-----0-----0-----0-----0--0--0-----0-----0----|

. . . . . .

 

GTR I

d|-------------------------------------------------|

A|-------------------------------------------------|

F|--------------5----------------------------------|

C|--------------4-----------5-----5-----5-----7----|

G|--0-----0-----5-----0-----3-----3-----3-----5----|

C|--0-----0-----0-----0----------------------------|

. .

 

GTR I

d|-------------------------------------------------|

A|-------------------------------------------------|

F|--------------5-----------5-----------------5----|

C|--------------4-----------4-----------------4----|

G|--0-----0-----5-----0-----5--0--0-----0-----5----|

C|--0-----0-----0-----0-----0--0--0-----0-----0----|

. . . . . .

 

GTR I

d|-------------------------------------------------|

A|-------------------------------------------------|

F|-------------------------------------------------|

C|-------------------------------------------------|

G|--0---/10-----7-----5-----3-----0-----3-----5----|

C|--0---/10-----7-----5-----3-----0-----3-----5----|

. . . .

 

GTR I

d|-------------------------------------------------|

A|-------------------------------------------------|

F|--------------5-----------5-----------------5----|

C|--------------4-----------4-----------------4----|

G|--0-----0-----5-----0-----5--0--0-----0-----5----|

C|--0-----0-----0-----0-----0--0--0-----0-----0----|

. . . . . .

 

GTR I

d|-------------------------------------------------|

A|-------------------------------------------------|

F|--------------5----------------------------------|

C|--------------4-----------5-----5-----5-----7----|

G|--0-----0-----5-----0-----3-----3-----3-----5----|

C|--0-----0-----0-----0----------------------------|

. .

 

GTR I

d|-------------------------------------------------|

A|-------------------------------------------------|

F|--------------5-----------5-----------------5----|

C|--------------4-----------4-----------------4----|

G|--0-----0-----5-----0-----5--0--0-----0-----5----|

C|--0-----0-----0-----0-----0--0--0-----0-----0----|

. . . . . .

 

GTR I

d|-------------------------------------------------|

A|-------------------------------------------------|

F|-------------------------------------------------|

C|-------------------------------------------------|

G|--0---/10-----7-----5-----3-----0-----3-----5----|

C|--0---/10-----7-----5-----3-----0-----3-----5----|

. . . .

 

Verse

 

GTR I,II

d|--------------|--------------|--------------|

A|--------------|--------------|--------------|

F|--------------|--------------|--------------|

C|--------------|--------------|--------------|

G|--------------|--------------|--------------|

C|--------------|--------------|--------------|

 

GTR I,II

d|-------------------------------------------------|

A|-------------------------------------------------|

F|-------------------------------------------------|

C|--------------------------5-----5-----5-----7----|

G|--------------------5-----3-----3-----3-----5----|

C|--------------------5----------------------------|

 

GTR I,II

d|--------------|--------------|--------------|

A|--------------|--------------|--------------|

F|--------------|--------------|--------------|

C|--------------|--------------|--------------|

G|--------------|--------------|--------------|

C|--------------|--------------|--------------|

 

GTR I,II

d|-------------------------------------------------|

A|-------------------------------------------------|

F|-------------------------------------------------|

C|--------------------------5-----5-----5-----7----|

G|--------0-----3-----5-----3-----3-----3-----5----|

C|--------0-----3-----5----------------------------|

 

GTR I

d|-------------------------------------------------|

A|-------------------------------------------------|

F|--------------5-----------5-----------------5----|

C|--------------4-----------4-----------------4----|

G|--0-----0-----5-----0-----5--0--0-----0-----5----|

C|--0-----0-----0-----0-----0--0--0-----0-----0----|

. . . . . .

 

GTR I

d|-------------------------------------------------|

A|-------------------------------------------------|

F|--------------5----------------------------------|

C|--------------4-----------5-----5-----5-----7----|

G|--0-----0-----5-----0-----3-----3-----3-----5----|

C|--0-----0-----0-----0----------------------------|

. .

 

GTR I

d|-------------------------------------------------|

A|-------------------------------------------------|

F|--------------5-----------5-----------------5----|

C|--------------4-----------4-----------------4----|

G|--0-----0-----5-----0-----5--0--0-----0-----5----|

C|--0-----0-----0-----0-----0--0--0-----0-----0----|

. . . . . .

 

GTR I

d|-------------------------------------------------|

A|-------------------------------------------------|

F|-------------------------------------------------|

C|-------------------------------------------------|

G|--0---/10-----7-----5-----3-----0-----3-----5----|

C|--0---/10-----7-----5-----3-----0-----3-----5----|

. . . .

 

GTR I,II

d|--------------|--------------|--------------|

A|--------------|--------------|--------------|

F|--------------|--------------|--------------|

C|--------------|--------------|--------------|

G|--------------|--------------|--------------|

C|--------------|--------------|--------------|

 

GTR I,II

d|-------------------------------------------------|

A|-------------------------------------------------|

F|-------------------------------------------------|

C|--------------------------5-----5-----5-----7----|

G|--------------------5-----3-----3-----3-----5----|

C|--------------------5----------------------------|

 

GTR I,II

d|--------------|--------------|--------------|

A|--------------|--------------|--------------|

F|--------------|--------------|--------------|

C|--------------|--------------|--------------|

G|--------------|--------------|--------------|

C|--------------|--------------|--------------|

 

GTR I,II

d|-------------------------------------------------|

A|-------------------------------------------------|

F|-------------------------------------------------|

C|--------------------------5-----5-----5-----7----|

G|--------0-----3-----5-----3-----3-----3-----5----|

C|--------0-----3-----5----------------------------|

 

GTR I,II

d|-------------------------------------------------|

A|-------------------------------------------------|

F|--5-----------------------5----------------------|

C|--4-----------------------4----------------------|

G|--5-----0--0--0-----0-----5-----0--0--0-----0----|

C|--0-----0--0--0-----0-----0-----0--0--0-----0----|

. . . . . . . .

 

GTR I

d|-------------------------------------------------|

A|-------------------------------------------------|

F|--5----------------------------------------------|

C|--4----------------------------------------------|

G|--5-----0--0--0-----0----10----10----10-----9----|

C|--0-----0--0--0-----0-----8-----8-----8-----7----|

. . . .

 

GTR I,II

d|-------------------------------------------------|

A|-------------------------------------------------|

F|--5-----------------------5----------------------|

C|--4-----------------------4----------------------|

G|--5-----0--0--0-----0-----5-----0--0--0-----0----|

C|--0-----0--0--0-----0-----0-----0--0--0-----0----|

. . . . . . . .

 

GTR I

d|-------------------------------------------------|

A|-------------------------------------------------|

F|--5----------------------------------------------|

C|--4----------------------------------------------|

G|--5-----0--0--0-----0----10----10----10-----9----|

C|--0-----0--0--0-----0-----8-----8-----8-----7----|

. . . .

 

Pre Chorus

 

GTR I

d|-------------------------------------------------|

A|-------------------------------------------------|

F|-------------------------------------------------|

C|-------------------------------------------------|

G|-------------------------10----10----10-----9----|

C|--------------------------8-----8-----8-----7----|

|

|GTR II

d|-------------------------------------------------|

A|-------------------------------------------------|

F|-------------------------------------------------|

C|-------------------------------------------------|

G|-10----10----10-----9----------------------------|

C|--8-----8-----8-----7----------------------------|

 

GTR I

d|-------------------------------------------------|

A|-------------------------------------------------|

F|-------------------------------------------------|

C|-------------------------------------------------|

G|-------------------------------------------------|

C|-------------------------10b---------------------|

|

|GTR II

d|-------------------------------------------------|

A|-------------------------------------------------|

F|-------------------------------------------------|

C|-------------------------------------------------|

G|-10----10----10-----9----------------------------|

C|--8-----8-----8-----7----10b---------------------|

 

Chorus

 

GTR I,II

d|-------------------------------------------------|

A|-------------------------------------------------|

F|-------------------------------------------------|

C|-12-12--7--8--8--8-10--5--5--5--5-10-10-10-10-12-|

G|-12-12--7--8--8--8-10--5--5--5--5-10-10-10-10-12-|

C|-12-12--7--8--8--8-10--5--5--5--5-10-10-10-10-12-|

 

GTR I,II

d|-------------------------------------------------|

A|-------------------------------------------------|

F|-------------------------------------------------|

C|-12-12--7--8--8--8-10--5--5--5--5-10-10-10-10-12-|

G|-12-12--7--8--8--8-10--5--5--5--5-10-10-10-10-12-|

C|-12-12--7--8--8--8-10--5--5--5--5-10-10-10-10-12-|

 

GTR I,II

d|-------------------------------------------------|

A|-------------------------------------------------|

F|-------------------------------------------------|

C|-12-12--7--8--8--8-10--5--5--5--5-10-10-10-10-12-|

G|-12-12--7--8--8--8-10--5--5--5--5-10-10-10-10-12-|

C|-12-12--7--8--8--8-10--5--5--5--5-10-10-10-10-12-|

 

GTR I,II

d|-------------------------------------------------|

A|-------------------------------------------------|

F|-------------------------------------------------|

C|-12-12--7--8--8--8-10--5--5--5--5-10-10-10-10-12-|

G|-12-12--7--8--8--8-10--5--5--5--5-10-10-10-10-12-|

C|-12-12--7--8--8--8-10--5--5--5--5-10-10-10-10-12-|

 

GTR I,II

d|-------------------------------------------------|

A|-------------------------------------------------|

F|-------------------------------------------------|

C|-12-12--7--8--8--8-10--5--5--5--5-10-10-10-10-12-|

G|-12-12--7--8--8--8-10--5--5--5--5-10-10-10-10-12-|

C|-12-12--7--8--8--8-10--5--5--5--5-10-10-10-10-12-|

 

GTR I,II

d|-------------------------------------------------|

A|-------------------------------------------------|

F|-------------------------------------------------|

C|-12-12--7--8--8--8-10--5--5--5--5-10-10-10-10-12-|

G|-12-12--7--8--8--8-10--5--5--5--5-10-10-10-10-12-|

C|-12-12--7--8--8--8-10--5--5--5--5-10-10-10-10-12-|

 

GTR I,II

d|-------------------------------------------------|

A|-------------------------------------------------|

F|-------------------------------------------------|

C|-12-12--7--8--8--8-10--5--5--5--5-10-10-10-10-12-|

G|-12-12--7--8--8--8-10--5--5--5--5-10-10-10-10-12-|

C|-12-12--7--8--8--8-10--5--5--5--5-10-10-10-10-12-|

 

GTR I,II

d|-------------------------------------------------|

A|-------------------------------------------------|

F|-------------------------------------------------|

C|-12-12--7--8--8--8-10--5--5--5--5-10-10-10-10-12-|

G|-12-12--7--8--8--8-10--5--5--5--5-10-10-10-10-12-|

C|-12-12--7--8--8--8-10--5--5--5--5-10-10-10-10-12-|

 

Pre Verse

 

GTR I

d|-------------------------------------------------|

A|-------------------------------------------------|

F|--------------5-----------5-----------------5----|

C|--------------4-----------4-----------------4----|

G|--0-----0-----5-----0-----5--0--0-----0-----5----|

C|--0-----0-----0-----0-----0--0--0-----0-----0----|

. . . . . .

 

GTR I

d|-------------------------------------------------|

A|-------------------------------------------------|

F|--------------5----------------------------------|

C|--------------4-----------5-----5-----5-----7----|

G|--0-----0-----5-----0-----3-----3-----3-----5----|

C|--0-----0-----0-----0----------------------------|

. .

 

GTR I

d|-------------------------------------------------|

A|-------------------------------------------------|

F|--------------5-----------5-----------------5----|

C|--------------4-----------4-----------------4----|

G|--0-----0-----5-----0-----5--0--0-----0-----5----|

C|--0-----0-----0-----0-----0--0--0-----0-----0----|

. . . . . .

 

GTR I

d|-------------------------------------------------|

A|-------------------------------------------------|

F|-------------------------------------------------|

C|-------------------------------------------------|

G|--0---/10-----7-----5-----3-----0-----3-----5----|

C|--0---/10-----7-----5-----3-----0-----3-----5----|

. . . .

 

Verse

 

GTR I,II

d|--------------|--------------|--------------|

A|--------------|--------------|--------------|

F|--------------|--------------|--------------|

C|--------------|--------------|--------------|

G|--------------|--------------|--------------|

C|--------------|--------------|--------------|

 

GTR I,II

d|-------------------------------------------------|

A|-------------------------------------------------|

F|-------------------------------------------------|

C|--------------------------5-----5-----5-----7----|

G|--------------------5-----3-----3-----3-----5----|

C|--------------------5----------------------------|

 

GTR I,II

d|--------------|--------------|--------------|

A|--------------|--------------|--------------|

F|--------------|--------------|--------------|

C|--------------|--------------|--------------|

G|--------------|--------------|--------------|

C|--------------|--------------|--------------|

 

GTR I,II

d|-------------------------------------------------|

A|-------------------------------------------------|

F|-------------------------------------------------|

C|--------------------------5-----5-----5-----7----|

G|--------0-----3-----5-----3-----3-----3-----5----|

C|--------0-----3-----5----------------------------|

 

GTR I

d|-------------------------------------------------|

A|-------------------------------------------------|

F|--------------5-----------5-----------------5----|

C|--------------4-----------4-----------------4----|

G|--0-----0-----5-----0-----5--0--0-----0-----5----|

C|--0-----0-----0-----0-----0--0--0-----0-----0----|

. . . . . .

 

GTR I

d|-------------------------------------------------|

A|-------------------------------------------------|

F|--------------5----------------------------------|

C|--------------4-----------5-----5-----5-----7----|

G|--0-----0-----5-----0-----3-----3-----3-----5----|

C|--0-----0-----0-----0----------------------------|

. .

 

GTR I

d|-------------------------------------------------|

A|-------------------------------------------------|

F|--------------5-----------5-----------------5----|

C|--------------4-----------4-----------------4----|

G|--0-----0-----5-----0-----5--0--0-----0-----5----|

C|--0-----0-----0-----0-----0--0--0-----0-----0----|

. . . . . .

 

GTR I

d|-------------------------------------------------|

A|-------------------------------------------------|

F|-------------------------------------------------|

C|-------------------------------------------------|

G|--0---/10-----7-----5-----3-----0-----3-----5----|

C|--0---/10-----7-----5-----3-----0-----3-----5----|

. . . .

 

GTR I,II

d|--------------|--------------|--------------|

A|--------------|--------------|--------------|

F|--------------|--------------|--------------|

C|--------------|--------------|--------------|

G|--------------|--------------|--------------|

C|--------------|--------------|--------------|

 

GTR I,II

d|-------------------------------------------------|

A|-------------------------------------------------|

F|-------------------------------------------------|

C|--------------------------5-----5-----5-----7----|

G|--------------------5-----3-----3-----3-----5----|

C|--------------------5----------------------------|

 

GTR I,II

d|--------------|--------------|--------------|

A|--------------|--------------|--------------|

F|--------------|--------------|--------------|

C|--------------|--------------|--------------|

G|--------------|--------------|--------------|

C|--------------|--------------|--------------|

 

GTR I,II

d|-------------------------------------------------|

A|-------------------------------------------------|

F|-------------------------------------------------|

C|--------------------------5-----5-----5-----7----|

G|--------0-----3-----5-----3-----3-----3-----5----|

C|--------0-----3-----5----------------------------|

 

GTR I,II

d|-------------------------------------------------|

A|-------------------------------------------------|

F|--5-----------------------5----------------------|

C|--4-----------------------4----------------------|

G|--5-----0--0--0-----0-----5-----0--0--0-----0----|

C|--0-----0--0--0-----0-----0-----0--0--0-----0----|

. . . . . . . .

 

GTR I

d|-------------------------------------------------|

A|-------------------------------------------------|

F|--5----------------------------------------------|

C|--4----------------------------------------------|

G|--5-----0--0--0-----0----10----10----10-----9----|

C|--0-----0--0--0-----0-----8-----8-----8-----7----|

. . . .

 

GTR I,II

d|-------------------------------------------------|

A|-------------------------------------------------|

F|--5-----------------------5----------------------|

C|--4-----------------------4----------------------|

G|--5-----0--0--0-----0-----5-----0--0--0-----0----|

C|--0-----0--0--0-----0-----0-----0--0--0-----0----|

. . . . . . . .

 

GTR I

d|-------------------------------------------------|

A|-------------------------------------------------|

F|--5----------------------------------------------|

C|--4----------------------------------------------|

G|--5-----0--0--0-----0----10----10----10-----9----|

C|--0-----0--0--0-----0-----8-----8-----8-----7----|

. . . .

 

Pre Chorus

 

GTR I

d|-------------------------------------------------|

A|-------------------------------------------------|

F|-------------------------------------------------|

C|-------------------------------------------------|

G|-------------------------10----10----10-----9----|

C|--------------------------8-----8-----8-----7----|

|

|GTR II

d|-------------------------------------------------|

A|-------------------------------------------------|

F|-------------------------------------------------|

C|-------------------------------------------------|

G|-10----10----10-----9----------------------------|

C|--8-----8-----8-----7----------------------------|

 

GTR I

d|-------------------------------------------------|

A|-------------------------------------------------|

F|-------------------------------------------------|

C|-------------------------------------------------|

G|-------------------------------------------------|

C|-------------------------10b---------------------|

|

|GTR II

d|-------------------------------------------------|

A|-------------------------------------------------|

F|-------------------------------------------------|

C|-------------------------------------------------|

G|-10----10----10-----9----------------------------|

C|--8-----8-----8-----7----10b---------------------|

 

Chorus

 

GTR I,II

d|-------------------------------------------------|

A|-------------------------------------------------|

F|-------------------------------------------------|

C|-12-12--7--8--8--8-10--5--5--5--5-10-10-10-10-12-|

G|-12-12--7--8--8--8-10--5--5--5--5-10-10-10-10-12-|

C|-12-12--7--8--8--8-10--5--5--5--5-10-10-10-10-12-|

 

GTR I,II

d|-------------------------------------------------|

A|-------------------------------------------------|

F|-------------------------------------------------|

C|-12-12--7--8--8--8-10--5--5--5--5-10-10-10-10-12-|

G|-12-12--7--8--8--8-10--5--5--5--5-10-10-10-10-12-|

C|-12-12--7--8--8--8-10--5--5--5--5-10-10-10-10-12-|

 

GTR I,II

d|-------------------------------------------------|

A|-------------------------------------------------|

F|-------------------------------------------------|

C|-12-12--7--8--8--8-10--5--5--5--5-10-10-10-10-12-|

G|-12-12--7--8--8--8-10--5--5--5--5-10-10-10-10-12-|

C|-12-12--7--8--8--8-10--5--5--5--5-10-10-10-10-12-|

 

GTR I,II

d|-------------------------------------------------|

A|-------------------------------------------------|

F|-------------------------------------------------|

C|-12-12--7--8--8--8-10--5--5--5--5-10-10-10-10-12-|

G|-12-12--7--8--8--8-10--5--5--5--5-10-10-10-10-12-|

C|-12-12--7--8--8--8-10--5--5--5--5-10-10-10-10-12-|

 

GTR I,II

d|-------------------------------------------------|

A|-------------------------------------------------|

F|-------------------------------------------------|

C|-12-12--7--8--8--8-10--5--5--5--5-10-10-10-10-12-|

G|-12-12--7--8--8--8-10--5--5--5--5-10-10-10-10-12-|

C|-12-12--7--8--8--8-10--5--5--5--5-10-10-10-10-12-|

 

GTR I,II

d|-------------------------------------------------|

A|-------------------------------------------------|

F|-------------------------------------------------|

C|-12-12--7--8--8--8-10--5--5--5--5-10-10-10-10-12-|

G|-12-12--7--8--8--8-10--5--5--5--5-10-10-10-10-12-|

C|-12-12--7--8--8--8-10--5--5--5--5-10-10-10-10-12-|

 

GTR I,II

d|-------------------------------------------------|

A|-------------------------------------------------|

F|-------------------------------------------------|

C|-12-12--7--8--8--8-10--5--5--5--5-10-10-10-10-12-|

G|-12-12--7--8--8--8-10--5--5--5--5-10-10-10-10-12-|

C|-12-12--7--8--8--8-10--5--5--5--5-10-10-10-10-12-|

 

GTR I,II

d|-------------------------------------------------|

A|-------------------------------------------------|

F|-------------------------------------------------|

C|-12-12--7--8--8--8-10--5--5--5--5-10-10-10-10-12-|

G|-12-12--7--8--8--8-10--5--5--5--5-10-10-10-10-12-|

C|-12-12--7--8--8--8-10--5--5--5--5-10-10-10-10-12-|

 

Bridge

 

GTR I

d|-------------------------------------------------|

A|-------------------------------------------------|

F|--5-----------------------5----------------------|

C|--4-----------------------4----------------------|

G|--5-----------------------5----------------------|

C|--0-----------------------0----------------------|

|

|GTR II

d|-------------------------------------------------|

A|-------------------------------------------------|

F|--5-----------------------5----------------------|

C|--4-----------------------4----------------------|

G|--5-----0--0--0-----0-----5-----0--0--0-----0----|

C|--0-----0--0--0-----0-----0-----0--0--0-----0----|

. . . . . . . .

 

GTR I

d|-------------------------------------------------|

A|-------------------------------------------------|

F|--5----------------------------------------------|

C|--4----------------------------------------------|

G|--5----------------------10----10----10-----9----|

C|--0-----------------------8-----8-----8-----7----|

|

|GTR II

d|-------------------------------------------------|

A|-------------------------------------------------|

F|--5----------------------------------------------|

C|--4----------------------------------------------|

G|--5-----0--0--0-----0----10----10----10-----9----|

C|--0-----0--0--0-----0-----8-----8-----8-----7----|

. . . .

 

GTR I

d|-------------------------------------------------|

A|-------------------------------------------------|

F|--5-----------------------5----------------------|

C|--4-----------------------4----------------------|

G|--5-----------------------5----------------------|

C|--0-----------------------0----------------------|

|

|GTR II

d|-------------------------------------------------|

A|-------------------------------------------------|

F|--5-----------------------5----------------------|

C|--4-----------------------4----------------------|

G|--5-----0--0--0-----0-----5-----0--0--0-----0----|

C|--0-----0--0--0-----0-----0-----0--0--0-----0----|

. . . . . . . .

 

GTR I

d|-------------------------------------------------|

A|-------------------------------------------------|

F|--5----------------------------------------------|

C|--4----------------------------------------------|

G|--5----------------------------------------------|

C|--0----------------------------------------------|

|

|GTR II

d|-------------------------------------------------|

A|-------------------------------------------------|

F|--5----------------------------------------------|

C|--4----------------------------------------------|

G|--5----------------------------------------------|

C|--0----------------------------------------------|

|

|GTR III

d|-------------------------------------------------|

A|-------------------------------------------------|

F|-------------------------------------------------|

C|-------------------------------------------------|

G|-------------------------------------------------|

C|-------------------------------------------------|

 

Guitar Solo

 

GTR I,II

d|-------------------------------------------------|

A|-------------------------------------------------|

F|--5-----------------------5----------------------|

C|--4-----------------------4----------------------|

G|--5-----0--0--0-----0-----5-----0--0--0-----0----|

C|--0-----0--0--0-----0-----0-----0--0--0-----0----|

| . . . . . . . .

|GTR III

d|-------------------------------------------------|

A|-------------------------------------------------|

F|-------------------------------------------------|

C|-------------------------------------------------|

G|-------------------------------------------------|

C|-------------------------------------------------|

 

GTR I,II

d|-------------------------------------------------|

A|-------------------------------------------------|

F|--5----------------------------------------------|

C|--4----------------------------------------------|

G|--5-----0--0--0-----0----10----10----10-----9----|

C|--0-----0--0--0-----0-----8-----8-----8-----7----|

| . . . .

|GTR III

d|-------------------------------------------------|

A|-------------------------------------------------|

F|-------------------------------------------------|

C|-------------------------------------------------|

G|-------------------------------------------------|

C|-------------------------------------------------|

 

GTR I,II

d|-------------------------------------------------|

A|-------------------------------------------------|

F|--5-----------------------5----------------------|

C|--4-----------------------4----------------------|

G|--5-----0--0--0-----0-----5-----0--0--0-----0----|

C|--0-----0--0--0-----0-----0-----0--0--0-----0----|

| . . . . . . . .

|GTR III

d|-------------------------------------------------|

A|-------------------------------------------------|

F|-------------------------------------------------|

C|-------------------------------------------------|

G|-------------------------------------------------|

C|-------------------------------------------------|

 

GTR I,II

d|-------------------------------------------------|

A|-------------------------------------------------|

F|--5----------------------------------------------|

C|--4----------------------------------------------|

G|--5-----0--0--0-----0----10----10----10-----9----|

C|--0-----0--0--0-----0-----8-----8-----8-----7----|

| . . . .

|GTR III

d|-------------------------------------------------|

A|-------------------------------------------------|

F|-------------------------------------------------|

C|-------------------------------------------------|

G|-------------------------------------------------|

C|-------------------------------------------------|

 

GTR I,II

d|-------------------------------------------------|

A|-------------------------------------------------|

F|--5-----------------------5----------------------|

C|--4-----------------------4----------------------|

G|--5-----0--0--0-----0-----5-----0--0--0-----0----|

C|--0-----0--0--0-----0-----0-----0--0--0-----0----|

| . . . . . . . .

|GTR III

d|-------------------------------------------------|

A|-------------------------------------------------|

F|-------------------------------------------------|

C|-------------------------------------------------|

G|-------------------------------------------------|

C|-------------------------------------------------|

 

GTR I,II

d|-------------------------------------------------|

A|-------------------------------------------------|

F|--5----------------------------------------------|

C|--4----------------------------------------------|

G|--5-----0--0--0-----0----10----10----10-----9----|

C|--0-----0--0--0-----0-----8-----8-----8-----7----|

| . . . .

|GTR III

d|-------------------------------------------------|

A|-------------------------------------------------|

F|-------------------------------------------------|

C|-------------------------------------------------|

G|-------------------------------------------------|

C|-------------------------------------------------|

 

GTR I,II

d|-------------------------------------------------|

A|-------------------------------------------------|

F|--5-----------------------5----------------------|

C|--4-----------------------4----------------------|

G|--5-----0--0--0-----0-----5-----0--0--0-----0----|

C|--0-----0--0--0-----0-----0-----0--0--0-----0----|

| . . . . . . . .

|GTR III

d|-------------------------------------------------|

A|-------------------------------------------------|

F|-------------------------------------------------|

C|-------------------------------------------------|

G|-------------------------------------------------|

C|-------------------------------------------------|

 

GTR I,II

d|-------------------------------------------------|

A|-------------------------------------------------|

F|--5----------------------------------------------|

C|--4----------------------------------------------|

G|--5-----0--0--0-----0----10----10----10-----9----|

C|--0-----0--0--0-----0-----8-----8-----8-----7----|

| . . . .

|GTR III

d|-------------------------------------------------|

A|-------------------------------------------------|

F|-------------------------------------------------|

C|-------------------------------------------------|

G|-------------------------------------------------|

C|-------------------------------------------------|

 

GTR I,II

d|-------------------------------------------------|

A|-------------------------------------------------|

F|--5-----------------------5----------------------|

C|--4-----------------------4----------------------|

G|--5-----0--0--0-----0-----5-----0--0--0-----0----|

C|--0-----0--0--0-----0-----0-----0--0--0-----0----|

| . . . . . . . .

|GTR III

d|-------------------------------------------------|

A|-------------------------------------------------|

F|-------------------------------------------------|

C|-------------------------------------------------|

G|-------------------------------------------------|

C|-------------------------------------------------|

 

GTR I,II

d|-------------------------------------------------|

A|-------------------------------------------------|

F|--5----------------------------------------------|

C|--4----------------------------------------------|

G|--5-----0--0--0-----0----10----10----10-----9----|

C|--0-----0--0--0-----0-----8-----8-----8-----7----|

| . . . .

|GTR III

d|-------------------------------------------------|

A|-------------------------------------------------|

F|-------------------------------------------------|

C|-------------------------------------------------|

G|-------------------------------------------------|

C|-------------------------------------------------|

 

GTR I,II

d|-------------------------------------------------|

A|-------------------------------------------------|

F|--5-----------------------5----------------------|

C|--4-----------------------4----------------------|

G|--5-----0--0--0-----0-----5-----0--0--0-----0----|

C|--0-----0--0--0-----0-----0-----0--0--0-----0----|

| . . . . . . . .

|GTR III

d|-------------------------------------------------|

A|-------------------------------------------------|

F|-------------------------------------------------|

C|-------------------------------------------------|

G|-------------------------------------------------|

C|-------------------------------------------------|

 

GTR I,II

d|-------------------------------------------------|

A|-------------------------------------------------|

F|--5----------------------------------------------|

C|--4----------------------------------------------|

G|--5-----0--0--0-----0----10----10----10-----9----|

C|--0-----0--0--0-----0-----8-----8-----8-----7----|

| . . . .

|GTR III

d|-------------------------------------------------|

A|-------------------------------------------------|

F|-------------------------------------------------|

C|-------------------------------------------------|

G|-------------------------------------------------|

C|-------------------------------------------------|

 

GTR I,II

d|-------------------------------------------------|

A|-------------------------------------------------|

F|--5-----------------------5----------------------|

C|--4-----------------------4----------------------|

G|--5-----0--0--0-----0-----5-----0--0--0-----0----|

C|--0-----0--0--0-----0-----0-----0--0--0-----0----|

| . . . . . . . .

|GTR III

d|-------------------------------------------------|

A|-------------------------------------------------|

F|-------------------------------------------------|

C|-------------------------------------------------|

G|-------------------------------------------------|

C|-------------------------------------------------|

 

GTR I,II

d|-------------------------------------------------|

A|-------------------------------------------------|

F|--5----------------------------------------------|

C|--4----------------------------------------------|

G|--5-----0--0--0-----0----10----10----10-----9----|

C|--0-----0--0--0-----0-----8-----8-----8-----7----|

| . . . .

|GTR III

d|-------------------------------------------------|

A|-------------------------------------------------|

F|-------------------------------------------------|

C|-------------------------------------------------|

G|-------------------------------------------------|

C|-------------------------------------------------|

 

GTR I,II

d|-------------------------------------------------|

A|-------------------------------------------------|

F|--5-----------------------5----------------------|

C|--4-----------------------4----------------------|

G|--5-----0--0--0-----0-----5-----0--0--0-----0----|

C|--0-----0--0--0-----0-----0-----0--0--0-----0----|

| . . . . . . . .

|GTR III

d|-------------------------------------------------|

A|-------------------------------------------------|

F|-------------------------------------------------|

C|-------------------------------------------------|

G|-------------------------------------------------|

C|-------------------------------------------------|

 

GTR I,II

d|-------------------------------------------------|

A|-------------------------------------------------|

F|--5----------------------------------------------|

C|--4----------------------------------------------|

G|--5-----0--0--0-----0----10----10----10-----9----|

C|--0-----0--0--0-----0-----8-----8-----8-----7----|

| . . . .

|GTR III

d|-------------------------------------------------|

A|-------------------------------------------------|

F|-------------------------------------------------|

C|-------------------------------------------------|

G|-------------------------------------------------|

C|-------------------------------------------------|

 

Pre Chorus 2

 

GTR I

d|-------------------------------------------------|

A|-------------------------------------------------|

F|-------------------------------------------------|

C|-------------------------------------------------|

G|-------------------------10----10----10-----9----|

C|--------------------------8-----8-----8-----7----|

|

|GTR II

d|-------------------------------------------------|

A|-------------------------------------------------|

F|-------------------------------------------------|

C|-------------------------------------------------|

G|-10----10----10-----9----------------------------|

C|--8-----8-----8-----7----------------------------|

|

|GTR III

d|-------------------------------------------------|

A|-------------------------------------------------|

F|-------------------------------------------------|

C|-------------------------------------------------|

G|-------------------------------------------------|

C|-------------------------------------------------|

 

GTR I

d|-------------------------------------------------|

A|-------------------------------------------------|

F|-------------------------------------------------|

C|-------------------------------------------------|

G|-------------------------------------------------|

C|-------------------------10b---------------------|

|

|GTR II

d|-------------------------------------------------|

A|-------------------------------------------------|

F|-------------------------------------------------|

C|-------------------------------------------------|

G|-10----10----10-----9----------------------------|

C|--8-----8-----8-----7----10b---------------------|

|

|GTR III

d|-------------------------------------------------|

A|-------------------------------------------------|

F|-------------------------------------------------|

C|-------------------------------------------------|

G|-------------------------------------------------|

C|-------------------------------------------------|

 

Chorus

 

GTR I,II

d|-------------------------------------------------|

A|-------------------------------------------------|

F|-------------------------------------------------|

C|-12-12--7--8--8--8-10--5--5--5--5-10-10-10-10-12-|

G|-12-12--7--8--8--8-10--5--5--5--5-10-10-10-10-12-|

C|-12-12--7--8--8--8-10--5--5--5--5-10-10-10-10-12-|

|

|GTR III

d|-------------------------------------------------|

A|-------------------------------------------------|

F|-------------------------------------------------|

C|-------------------------------------------------|

G|-------------------------------------------------|

C|-------------------------------------------------|

 

GTR I,II

d|-------------------------------------------------|

A|-------------------------------------------------|

F|-------------------------------------------------|

C|-12-12--7--8--8--8-10--5--5--5--5-10-10-10-10-12-|

G|-12-12--7--8--8--8-10--5--5--5--5-10-10-10-10-12-|

C|-12-12--7--8--8--8-10--5--5--5--5-10-10-10-10-12-|

 

GTR I,II

d|-------------------------------------------------|

A|-------------------------------------------------|

F|-------------------------------------------------|

C|-12-12--7--8--8--8-10--5--5--5--5-10-10-10-10-12-|

G|-12-12--7--8--8--8-10--5--5--5--5-10-10-10-10-12-|

C|-12-12--7--8--8--8-10--5--5--5--5-10-10-10-10-12-|

 

GTR I,II

d|-------------------------------------------------|

A|-------------------------------------------------|

F|-------------------------------------------------|

C|-12-12--7--8--8--8-10--5--5--5--5-10-10-10-10-12-|

G|-12-12--7--8--8--8-10--5--5--5--5-10-10-10-10-12-|

C|-12-12--7--8--8--8-10--5--5--5--5-10-10-10-10-12-|

 

GTR I,II

d|-------------------------------------------------|

A|-------------------------------------------------|

F|-------------------------------------------------|

C|-12-12--7--8--8--8-10--5--5--5--5-10-10-10-10-12-|

G|-12-12--7--8--8--8-10--5--5--5--5-10-10-10-10-12-|

C|-12-12--7--8--8--8-10--5--5--5--5-10-10-10-10-12-|

 

GTR I,II

d|-------------------------------------------------|

A|-------------------------------------------------|

F|-------------------------------------------------|

C|-12-12--7--8--8--8-10--5--5--5--5-10-10-10-10-12-|

G|-12-12--7--8--8--8-10--5--5--5--5-10-10-10-10-12-|

C|-12-12--7--8--8--8-10--5--5--5--5-10-10-10-10-12-|

 

GTR I,II

d|-------------------------------------------------|

A|-------------------------------------------------|

F|-------------------------------------------------|

C|-12-12--7--8--8--8-10--5--5--5--5-10-10-10-10-12-|

G|-12-12--7--8--8--8-10--5--5--5--5-10-10-10-10-12-|

C|-12-12--7--8--8--8-10--5--5--5--5-10-10-10-10-12-|

 

GTR I,II

d|-------------------------------------------------|

A|-------------------------------------------------|

F|-------------------------------------------------|

C|-12-12--7--8--8--8-10--5--5--5--5-10-10-10-10-12-|

G|-12-12--7--8--8--8-10--5--5--5--5-10-10-10-10-12-|

C|-12-12--7--8--8--8-10--5--5--5--5-10-10-10-10-12-|

 

Outro

 

GTR I,II

d|-------------------------------------------------|

A|-------------------------------------------------|

F|--5-----------------------5----------------------|

C|--4-----------------------4----------------------|

G|--5-----0--0--0-----0-----5-----0--0--0-----0----|

C|--0-----0--0--0-----0-----0-----0--0--0-----0----|

. . . . . . . .

 

GTR I,II

d|-------------------------------------------------|

A|-------------------------------------------------|

F|--5----------------------------------------------|

C|--4----------------------------------------------|

G|--5-----0--0--0-----0----10----10----10-----9----|

C|--0-----0--0--0-----0-----8-----8-----8-----7----|

. . . .

 

GTR I,II

d|-------------------------------------------------|

A|-------------------------------------------------|

F|--5-----------------------5----------------------|

C|--4-----------------------4----------------------|

G|--5-----0--0--0-----0-----5-----0--0--0-----0----|

C|--0-----0--0--0-----0-----0-----0--0--0-----0----|

. . . . . . . .

 

GTR I,II

d|-------------------------------------------------|

A|-------------------------------------------------|

F|--5----------------------------------------------|

C|--4----------------------------------------------|

G|--5-----0--0--0-----0----10----10----10-----9----|

C|--0-----0--0--0-----0-----8-----8-----8-----7----|

. . . .

 

GTR I,II

d|-------------------------------------------------|

A|-------------------------------------------------|

F|--5-----------------------5----------------------|

C|--4-----------------------4----------------------|

G|--5-----0--0--0-----0-----5-----0--0--0-----0----|

C|--0-----0--0--0-----0-----0-----0--0--0-----0----|

. . . . . . . .

 

GTR I,II

d|-------------------------------------------------|

A|-------------------------------------------------|

F|--5----------------------------------------------|

C|--4----------------------------------------------|

G|--5-----0--0--0-----0----10----10----10-----9----|

C|--0-----0--0--0-----0-----8-----8-----8-----7----|

. . . .

 

GTR I,II

d|-------------------------------------------------|

A|-------------------------------------------------|

F|--5-----------------------5----------------------|

C|--4-----------------------4----------------------|

G|--5-----0--0--0-----0-----5-----0--0--0-----0----|

C|--0-----0--0--0-----0-----0-----0--0--0-----0----|

. . . . . . . .

 

GTR I,II

d|-------------------------------------------------|

A|-------------------------------------------------|

F|--5----------------------------------------------|

C|--4----------------------------------------------|

G|--5----------------------------------------------|

C|--0----------------------------------------------|

 

| b bend

| r release bend

|PH. pinch harmonic

|fbk feedback

| . palm-mute

| / slide up

| \ slide down

| h hammer-on

| p pull-off

| ~ vibrato

| + harmonic

| x Mute note

===============================================================================

Return to my Nickelback Guitar Tabs page

The Nickelback Guitar Tablature is Copyright its respective owners.

Sign Up For My Newsletter
Subscribe | Unsubscribe

Site Map | Disclaimer | Privacy Policy | Media Kit | Submissions/Corrections

Website © 2000-2014 mattsmusicpage.com. All rights reserved.

Legal & DMCA: Matt's Music Page has been providing lyrics and tabs in a legal way, paying royalties each year to a few organizations. Then, all lyrics and tabs were removed from the site. Now, there's a new owner to the site, which purchased it August 26, 2014, and he is in negotiation to obtain licensing from BMI at the moment. If you have a specific DMCA request -- please do not hesitate to contact me via the contact button on top. I will do my very best to keep this site fully legal.

Get our toolbar!