Your One-Stop Source For
Music Lyrics
Bass and Guitar Tabs
and More...
Music Lyrics Bass and Guitar Tabs

 

The Nickelback Guitar Tabs Are Below

Learn To Read Tab
Chords Handbook
Corrections & Additions
Get Official Tab
Nickelback tabs @ 911Tabs

Artist: Nickelback

Song: Lullaby

Tuning: Standard

Tabbed by: azz1993

 

Chords Used

C#m E B F# Abm

e|-4------7------2------2-------4---|

B|-5------9------4------2-------4---|

G|-6------9------4------5-------4---|

D|-6------9------4------4-------6---|

A|-4------7------2------4-------6---|

E|----------------------2-------4---|

____________________________________________________

 

[INTRO]

 

C#m E B F#

 

C#m E B F#

e|-----------------------------|

B|---5------9--------4------2--|

G|--6------9--------4------5---|

D|-6------9--------4------4----|

A|-----------------------------|

E|-----------------------------|

 

C#m E B F#

e|-----------------------------|

B|---5------9--------4------2--|

G|--6------9--------4------5---|

D|-6------9--------4------4----|

A|-----------------------------|

E|-----------------------------|

 

 

[VERSE No.1]

C#m E

Well I know the feeling

B F#

Of finding yourself stuck out on the ledge

C#m E

And there ain't no healing

B F#

From cutting yourself with the jagged edge

 

 

[VERSE 2]

C#m E

I'm telling you that its never that bad

 

e|--------------------------------|

B|--------5----------9------------|

G|------6----------9--------------|

D|----6----------9----------------|

A|--------------------------------|

E|--------------------------------|

B F#

Take it from someone whose been where you're at

e|--------------------------------|

B|--------4----------2------------|

G|------4----------5--------------|

D|----4----------4----------------|

A|--------------------------------|

E|--------------------------------|

E

Laid out on the floor and your not sure

e|--------------------------------|

B|--------4----------4------------|

G|------4----------4--------------|

D|----4----------4----------------|

A|--------------------------------|

E|--------------------------------|

F#

You can take this anymore

e|--------------------------------|

B|--------2-----------------------|

G|------5-------------------------|

D|----4---------------------------|

A|--------------------------------|

E|--------------------------------|

 

 

[CHORUS]

C#m E

So just give it one more try to a lullaby

e|--------------------------------|

B|--------5----------9------------|

G|------6----------9--------------|

D|----6----------9----------------|

A|--------------------------------|

E|--------------------------------|

B F#

And turn this up on the radio

e|--------------------------------|

B|--------4----------2------------|

G|------4----------5--------------|

D|----4----------4----------------|

A|--------------------------------|

E|--------------------------------|

C#m E

If you can hear me now I'm reaching out

e|--------------------------------|

B|--------5----------9------------|

G|------6----------9--------------|

D|----6----------9----------------|

A|--------------------------------|

E|--------------------------------|

 

B F#

To let you know that you're not alone

e|--------------------------------|

B|--------4----------2------------|

G|------4----------5--------------|

D|----4----------4----------------|

A|--------------------------------|

E|--------------------------------|

C#m E

And you can't tell I'm scared as hell

e|--------------------------------|

B|--------5----------9------------|

G|------6----------9--------------|

D|----6----------9----------------|

A|--------------------------------|

E|--------------------------------|

B F#

Cause I can't get you on the telephone

e|--------------------------------|

B|--------4----------2------------|

G|------4----------5--------------|

D|----4----------4----------------|

A|--------------------------------|

E|--------------------------------|

E F#

So just close your eyes (close your eyes)

e|--------------------------------|

B|--------5----------9------------|

G|------6----------9--------------|

D|----6----------9----------------|

A|--------------------------------|

E|--------------------------------|

 

e|--------------------------------|

B|--------4----------4------------|

G|------4----------4--------------|

D|----4----------4----------------|

A|--------------------------------|

E|--------------------------------|

 

C#m E

Well honey here comes a lullaby

e|--------------------------------|

B|--------5----------9------------|

G|------6----------9--------------|

D|----6----------9----------------|

A|--------------------------------|

E|--------------------------------|

B F#

Your very own lullaby

 

e|--------------------------------|

B|--------4----------2------------|

G|------4----------5--------------|

D|----4----------4----------------|

A|--------------------------------|

E|--------------------------------|

 

[VERSE No.3]

C#m E

Please let me take you

e|--------------------------------|

B|--------5----------9------------|

G|------6----------9--------------|

D|----6----------9----------------|

A|--------------------------------|

E|--------------------------------|

B F#

Out of the darkness and into the light

e|--------------------------------|

B|--------4----------2------------|

G|------4----------5--------------|

D|----4----------4----------------|

A|--------------------------------|

E|--------------------------------|

C#m E

Cause I have faith in you

e|--------------------------------|

B|--------5----------9------------|

G|------6----------9--------------|

D|----6----------9----------------|

A|--------------------------------|

E|--------------------------------|

 

B F#

That you're gonna make it through another night

e|--------------------------------|

B|--------4----------2------------|

G|------4----------5--------------|

D|----4----------4----------------|

A|--------------------------------|

E|--------------------------------|

C#m E

Stop thinking about the easy way out

e|--------------------------------|

B|--------5----------9------------|

G|------6----------9--------------|

D|----6----------9----------------|

A|--------------------------------|

E|--------------------------------|

B F#

There's no need to go and blow the candle out

e|--------------------------------|

B|--------4----------2------------|

G|------4----------5--------------|

D|----4----------4----------------|

A|--------------------------------|

E|--------------------------------|

E

Because you're not done you're far too young

e|--------------------------------|

B|--------2----------2------------|

G|------5----------5--------------|

D|----4----------4----------------|

A|--------------------------------|

E|--------------------------------|

 

F#

And the best is yet to come

e|--------------------------------|

B|--------2-----------------------|

G|------5-------------------------|

D|----4---------------------------|

A|--------------------------------|

E|--------------------------------|

 

[CHORUS]

C#m E

So just give it one more try to a lullaby

e|--------------------------------|

B|--------5----------9------------|

G|------6----------9--------------|

D|----6----------9----------------|

A|--------------------------------|

E|--------------------------------|

B F#

And turn this up on the radio

e|--------------------------------|

B|--------4----------2------------|

G|------4----------5--------------|

D|----4----------4----------------|

A|--------------------------------|

E|--------------------------------|

C#m E

If you can hear me now I'm reaching out

e|--------------------------------|

B|--------5----------9------------|

G|------6----------9--------------|

D|----6----------9----------------|

A|--------------------------------|

E|--------------------------------|

 

B F#

To let you know that you're not alone

e|--------------------------------|

B|--------4----------2------------|

G|------4----------5--------------|

D|----4----------4----------------|

A|--------------------------------|

E|--------------------------------|

C#m E

And you can't tell I'm scared as hell

e|--------------------------------|

B|--------5----------9------------|

G|------6----------9--------------|

D|----6----------9----------------|

A|--------------------------------|

E|--------------------------------|

B F#

Cause I can't get you on the telephone

e|--------------------------------|

B|--------4----------2------------|

G|------4----------5--------------|

D|----4----------4----------------|

A|--------------------------------|

E|--------------------------------|

E F#

So just close your eyes (close your eyes)

e|--------------------------------|

B|--------5----------9------------|

G|------6----------9--------------|

D|----6----------9----------------|

A|--------------------------------|

E|--------------------------------|

 

e|--------------------------------|

B|--------4----------4------------|

G|------4----------4--------------|

D|----4----------4----------------|

A|--------------------------------|

E|--------------------------------|

 

C#m E

Well honey here comes a lullaby

e|--------------------------------|

B|--------5----------9------------|

G|------6----------9--------------|

D|----6----------9----------------|

A|--------------------------------|

E|--------------------------------|

B F#

Your very own lullaby

 

e|--------------------------------|

B|--------4----------2------------|

G|------4----------5--------------|

D|----4----------4----------------|

A|--------------------------------|

E|--------------------------------|

 

 

 

[BRIDGE]

B Abm

Well everybody's hit the bottom

E

And everybody's been forgotten

B

When everybody's tired of being alone

Abm

Yeah everybody's been abandoned

E

And left a little empty handed

F#

So if you're out there barely hanging on

 

 

[CHORUS]

C#m E

So just give it one more try to a lullaby

e|--------------------------------|

B|--------5----------9------------|

G|------6----------9--------------|

D|----6----------9----------------|

A|--------------------------------|

E|--------------------------------|

B F#

And turn this up on the radio

e|--------------------------------|

B|--------4----------2------------|

G|------4----------5--------------|

D|----4----------4----------------|

A|--------------------------------|

E|--------------------------------|

C#m E

If you can hear me now I'm reaching out

e|--------------------------------|

B|--------5----------9------------|

G|------6----------9--------------|

D|----6----------9----------------|

A|--------------------------------|

E|--------------------------------|

 

B F#

To let you know that you're not alone

e|--------------------------------|

B|--------4----------2------------|

G|------4----------5--------------|

D|----4----------4----------------|

A|--------------------------------|

E|--------------------------------|

C#m E

And you can't tell I'm scared as hell

e|--------------------------------|

B|--------5----------9------------|

G|------6----------9--------------|

D|----6----------9----------------|

A|--------------------------------|

E|--------------------------------|

B F#

Cause I can't get you on the telephone

e|--------------------------------|

B|--------4----------2------------|

G|------4----------5--------------|

D|----4----------4----------------|

A|--------------------------------|

E|--------------------------------|

E F#

So just close your eyes (close your eyes)

e|--------------------------------|

B|--------5----------9------------|

G|------6----------9--------------|

D|----6----------9----------------|

A|--------------------------------|

E|--------------------------------|

 

e|--------------------------------|

B|--------4----------4------------|

G|------4----------4--------------|

D|----4----------4----------------|

A|--------------------------------|

E|--------------------------------|

 

C#m E

Well honey here comes a lullaby

e|--------------------------------|

B|--------5----------9------------|

G|------6----------9--------------|

D|----6----------9----------------|

A|--------------------------------|

E|--------------------------------|

B F#

Your very own lullaby

 

e|--------------------------------|

B|--------4----------2------------|

G|------4----------5--------------|

D|----4----------4----------------|

A|--------------------------------|

E|--------------------------------|

 

 

[OUTTRO]

C#m E

Well honey here comes a lullaby

B F#

Your very own lullaby

 

C#m E B F#

 

Note the riff is played based on the shape of the chords played by the other

guitar(a piano in the song but sounds good on guitar). I find the 7th fret

E Chord makes it easier to transition to the B and it sounds better than an open E.

Any comments, questions and fixes please dont hesitate to comment :)

Enjoy!

azz1993

Return to my Nickelback Guitar Tabs page

The Nickelback Guitar Tablature is Copyright its respective owners.

Sign Up For My Newsletter
Subscribe | Unsubscribe

Site Map | Disclaimer | Privacy Policy | Media Kit | Submissions/Corrections

Website © 2000-2014 mattsmusicpage.com. All rights reserved.

Legal & DMCA: Matt's Music Page has been providing lyrics and tabs in a legal way, paying royalties each year to a few organizations. Then, all lyrics and tabs were removed from the site. Now, there's a new owner to the site, which purchased it August 26, 2014, and he is in negotiation to obtain licensing from BMI at the moment. If you have a specific DMCA request -- please do not hesitate to contact me via the contact button on top. I will do my very best to keep this site fully legal.

Get our toolbar!