Your One-Stop Source For
Music Lyrics
Bass and Guitar Tabs
and More...
Music Lyrics Bass and Guitar Tabs

 

The Nickelback Guitar Tabs Are Below

Learn To Read Tab
Chords Handbook
Corrections & Additions
Get Official Tab
Nickelback tabs @ 911Tabs

Nickelback: I'd Come For You

Please Comment/Rate

Tuning - Standard

Guitar 1- (Electric)

Guitar 2- (Acoustic)

 

Intro

Guitar 1 - Clean

 

E----7---10---9--7---|

B--7---7----7--------|

G--------------------|

D--------------------| x4 Clean

A--------------------|

E--------------------|

 

Verse 1

Guitar 1 - Clean

 

E----7---10---9--7---|

B--7---7----7--------|

G--------------------|

D--------------------| x7 Clean

A--------------------|

E--------------------|

 

E----7----10---------|

B--------------------|

G--9---9-------------|

D--------------------|

A--------------------|

E--------------------|

 

 

 

Pre Chorus - Clean

Guitar 1 (In the background,can barely be heard)

E-------------------------------------------------------|

B--------3------------3------------3------------2-------|

G-----0-----0------0-----0------2-----2------2-----2----|

D--2------------0------------0-------------0------------| x4

A-------------------------------------------------------|

E-------------------------------------------------------|

 

 

Chorus

Guitar 1- Distorted

Palm Muted (In the background,can barely be heard)

E---------------------------------|

B------------------8-7------7-----|

G--9-7-9-7-9-7-9-7-----9-7----9-7-|

D---------------------------------| x8

A---------------------------------|

E---------------------------------|

 

Interlude

Guitar 1- Clean

E--------3---2----------|

B------3---3---3--------|

G----2------------------|

D--0--------------------| x3

A-----------------------|

E-----------------------|

 

E--3---1-3-1---5---3-5-3--0---|

B-------------------------3---|

G-------------------------2---|

D-------------------------0---|

A-----------------------------|

E-----------------------------|

 

Verse 2

Guitar 1-Clean

E----7---10---9--7--- E----7----10---------|

B--7---7----7-------- B--------------------|

G-------------------- G--9---9-------------|

D-------------------- x3 D--------------------|

A-------------------- A--------------------|

E-------------------- E--------------------|

 

 

Pre Chorus

Guitar 1

-(Same As Above)

 

Chorus

Guitar 1

-(Same As Above)

 

Bridge

Guitar 1- Clean

 

E---------------------------------|

B------------------8-7------7-----|

G--9-7-9-7-9-7-9-7-----9-7----9-7-|

D---------------------------------| x1

A---------------------------------|

E---------------------------------|

 

 

E--------3---2----------|

B------3---3---3--------|

G----2------------------|

D--0--------------------| x3

A-----------------------|

E-----------------------|

 

E--3---1-3-1---5---3-5-3--0---|

B-------------------------3---|

G-------------------------2---|

D-------------------------0---| x1

A-----------------------------|

E-----------------------------|

 

Wait until the end of the bridge and play this fill into the chorus

 

Volume swell

E-----------------------------|

B-----------------------------|

G--7->>>------7--7------------|

D--7->>>------7--7----/12\----| x1 Distorted

A--5->>>------5--5----/12\----|

E-----------------------------|

 

End Chorus

Guitar 1

-Chorus (x8)Roughly

 

End On D5

E---------|

B---------|

G----7----|

D----7----|

A----5----|

E---------|

 

CHORDS-Guitar 2

 

Intro

Bm G D A

 

Verse 1

Bm G

Just one more moment, thats all thats needed

D A

Like wounded soldiers in need of healing

Bm G

Time to be honest, this time Im pleading

D A

Please dont dwell on it, cause I didnt mean it

 

 

Pre Chorus

Em G D A

I cant believe I said Id lay our love on the ground

Em G D A Em

But it doesnt matter cause Ive made it up, forgive me now

G D A

Every day I spend away my souls inside out

Em G D A

Gotta be some way that I can make it up to you now, somehow

 

By now you'd know that

 

 

Chorus

D Bm

Id come for you

A G A

No one but you, yes Id come for you, but only if you told me to

D Bm

And Id fight for you, Id lie, its true

A F

Give my life for you

G

You know Id always come for you

 

 

Interlude 1

D Bm A F G D

 

 

Verse 2

Bm G

I was blindfolded, but now Im seeing

D A

My mind was closing, now Im believing

 

 

Pre Chorus

Em G D A

I finally know just what it means to let someone in

Em G D A Em

To see the side of me that no one does or ever will

G D A

So if youre ever lost and find yourself all alone

Em G D A

Id search forever just to bring you home, here and now, this I vow

 

By now you know that

 

 

Chorus

D Bm

Id come for you

A G A

No one but you, yes Id come for you, but only if you told me to

D Bm

And Id fight for you, Id lie, its true

A F

Give my life for you

G

You know Id always come for you

 

 

Bridge

B C

You know Id always come for you

D Bm A

No matter what gets in my way, as long as theres still life in me

F G

No matter what remember, you know Ill always come for you

D Bm A

Yes Id come for you, no one but you

G

Yes Id come for you, but only if you told me to

 

 

Chorus

D Bm A

And Id fight for you, Id lie, its true

 

Give my life for you

F G

You know Ill always come for you

D Bm A

No matter what gets in my way, as long as theres still life in me

F G

No matter what remember, you know I'll always come for you

D Bm A

Id crawl across this world for you, do anything you want me to

F G

No matter what remember you know Ill always come for you

Bm C D5

You know Ill always come for you.

Return to my Nickelback Guitar Tabs page

The Nickelback Guitar Tablature is Copyright its respective owners.

Sign Up For My Newsletter
Subscribe | Unsubscribe

Site Map | Disclaimer | Privacy Policy | Media Kit | Submissions/Corrections

Website © 2000-2014 mattsmusicpage.com. All rights reserved.

Legal & DMCA: Matt's Music Page has been providing lyrics and tabs in a legal way, paying royalties each year to a few organizations. Then, all lyrics and tabs were removed from the site. Now, there's a new owner to the site, which purchased it August 26, 2014, and he is in negotiation to obtain licensing from BMI at the moment. If you have a specific DMCA request -- please do not hesitate to contact me via the contact button on top. I will do my very best to keep this site fully legal.

Get our toolbar!

 

Hard Rock Pin Las Vegas 4th of july red white and blue guitar
$5.0
Hard Rock Pin Las Vegas 4th of july red white and blue guitar picture


Hard Rock Pin Hollywood Fl Bell Girl with dice luggage and guitar
$5.0
Hard Rock Pin Hollywood Fl Bell Girl with dice luggage and guitar picture


Hard Rock Pin Las Vegas King of Clubs Guitar rare only 3 lines of info on back
$5.0
Hard Rock Pin Las Vegas King of Clubs Guitar rare only 3 lines of info on back picture


Hard Rock Pin Edmonton guitar pin
$5.0
Hard Rock Pin Edmonton guitar pin picture


Lladro Guitar Boy #4614 - Beautiful Piece of Lladro
$109.0
Lladro Guitar Boy #4614 - Beautiful Piece of Lladro picture