Your One-Stop Source For
Music Lyrics
Bass and Guitar Tabs
and More...
Music Lyrics Bass and Guitar Tabs

 

The Tabs Are Below

Learn To Read Tab
Chords Handbook
Corrections & Additions
Get Official Tab
Nickelback tabs @ 911Tabs

band: Nickelback

Song: Yankin Out My Heart

Album: The Long Road

Tuning 4-string: D-Tuning (DADG)

tabbed By ClosedRoad

 

Intro

G ----------------------------------------------|

D ----------------------------------------------|

A ----------------------------------------------| Listen for perfect timing because

D -12/-5h77-5h77-5h77-5h77-5h77-5h77-5h77-5h77--| this part is realy difficult

 

Verse

G ---------------------------------------------|

D ---------------------------------------------|

A ----------------3h55-----------3h55----------| 2x

D -5h77-5h77-2h33------5h77-5h77------3h55-----|

 

Pre Chorus

G --------------------------------------|

D --------------------------------------|

A ---------3333-------------------------| 3x

D -00000000----5x5-5h77-5h77-5h77-5hh7--|

 

Chorus

G ----------------------------------------------------|

D ----------------------------------------------------|

A -----------------7h88-7h88--------------------------| 2x

D -10h1212-10h1212-----------8h1010-8h1010-3h55-3h55--|

 

After Chorus

G ------------|

D ------------|

A ---------3--|

D -33333333---|

 

Intro

verse 2x

Pre Chorus 3x

Chorus 4x

After Chorus

Intro

 

Bridge

G -----------------------------------------------|

D -----------------------------------------------|

A -----------------888810101010------------------| 3x

D -10h1212-10h1212--------------00-000-33335555--|

 

After Chorus

Intro

verse 2x

Pre Chorus 3x

Chorus 4x

After Chorus

Intro

 

End

G ---------------|

D ---------------|

A --------333----|

D -0000000----0--|

 

That's it I think this is the way to play it.

have Fun and please rate it

Greetings ClosedRoad

 

 

Return to my Nickelback bass tabs page

The Tablature is Copyright its respective owners.

Sign Up For My Newsletter
Subscribe | Unsubscribe

Site Map | Disclaimer | Privacy Policy | Media Kit | Submissions/Corrections

Website © 2000-2014 mattsmusicpage.com. All rights reserved.

Legal & DMCA: Matt's Music Page has been providing lyrics and tabs in a legal way, paying royalties each year to a few organizations. Then, all lyrics and tabs were removed from the site. Now, there's a new owner to the site, which purchased it August 26, 2014, and he is in negotiation to obtain licensing from BMI at the moment. If you have a specific DMCA request -- please do not hesitate to contact me via the contact button on top. I will do my very best to keep this site fully legal.

Get our toolbar!