Your One-Stop Source For
Music Lyrics
Bass and Guitar Tabs
and More...
Music Lyrics Bass and Guitar Tabs

 

The Tabs Are Below

Learn To Read Tab
Chords Handbook
Corrections & Additions
Get Official Tab
Nickelback tabs @ 911Tabs

Nickelback

Woke up this morning

Tabbed by maxi (maxx8711@aol.com)

 

Start (0:02)

G -----------------------------

D -----------------------------

A -----------------------------

E --5-5--------3-3-------------

B ------------------------3-3--

 

Start (0:09)

G --------

D --------

A --3\\\--

E --------

B --------

 

Intro (0:11)

G ------------------------------------------------------------

D ------------------------------------------------------------

A --------------0-\-------------------------------------------

E --------------------------------3-\-------------------------

B --1-1-----1-1------1-1------1-1------1-1------1-1------3-\--

 

Intro (0:20)

G ---------------------

D ---------------------

A -------0-0-----------

E ---------------------

B --1-1------1-1--3-3--

 

Verse (0:22)

G --------------------------------------------

D --------------------------------------------

A --------------------------------------------

E --------------------------------------------

B --1-1----1-1--------1-1----1-1---------1-1--

 

(0:30)

G ---------------------- -----------------

D ---------------------- -----------------

A ----------------(0)\-- -------------3\--

E ---------------------- -----------------

B --1-1--------4/------- ---1-1-----------

 

Prechorus (0:33)

G -------------------------------------------------------------------

D -------------------------------------------------------------------

A -------------------------------------------------------------------

E -------------------------------------------------------------------

B --1-1----1-1-----3-3---1-1-----1-1-------3-3---1-1------1-1--3-3--1

 

Prechorus (0:43)

G -----------------------------

D -----------------------------

A --------------0-0-0-0-0-0-0--

E --3-3-3-3-3-3----------------

B -----------------------------

 

Prechorus (0:49)

G ----------------------------------------

D ---------------------/(4)\(2)/(4)\(2)\--

A --2-2-2-2-2-2-2-2-2---------------------

E ----------------------------------------

B ----------------------------------------

 

 

 

 

Chorus (0:54)

G -------------------------------------------------------

D ------------1-\----------------2--2--2-\-0-----0-0-0---

A --2---2-2-4-----(2)---2--2--2--------------------------

E -------------------------------------------------------

B --1----------------------------------------------------

 

Chorus (1:11)

G ---------------------------------------------------

D --/-2--2--2-\-0-----0--0--0---2---------0\\\\------

A ---------------------------------------------------

E ---------------------------------------------------

B ---------------------------------------------(1)---

 

Brige (Intro)

 

Verse

 

Prechorus

 

Chorus

 

Bridge

 

Breakout (2:42)

G -----------

D -----------

A -----------

E --1--0-----

B --------3--

 

Breakout (2:44)

G -------------------------------------------------------------------------

D -----------------0----------------------------------------------0--------

A --------------------2--0-------------------------------------------0--2--

E ----------------------------------------1--0-----------------------------

B --1---1-2-3-4-------------1---1-2-3-4---------3--1---1-2-3-4-------------

 

Breakout (2:52)

G ------------------------------------------------------------------------------------

D -------------------------------------------0----------------------------------------

A ----------------------------------------------0--2----------------------------------

E ----------------2-----0---------------------------------------------------2------0--

B --1---1-2-3-4------3-----1---1---1-2-3-4------------1---3--1---1-2-3-4--------3-----

 

Prechorus (without first part)

 

Chorus (at the end: D --0--)

 

Outro (Intro)

 

 

Return to my Nickelback bass tabs page

The Tablature is Copyright its respective owners.

Sign Up For My Newsletter
Subscribe | Unsubscribe

Site Map | Disclaimer | Privacy Policy | Media Kit | Submissions/Corrections

Website © 2000-2014 mattsmusicpage.com. All rights reserved.

Legal & DMCA: Matt's Music Page has been providing lyrics and tabs in a legal way, paying royalties each year to a few organizations. Then, all lyrics and tabs were removed from the site. Now, there's a new owner to the site, which purchased it August 26, 2014, and he is in negotiation to obtain licensing from BMI at the moment. If you have a specific DMCA request -- please do not hesitate to contact me via the contact button on top. I will do my very best to keep this site fully legal.

Get our toolbar!

 

Starbucks You Are Here Coffee Mug/Cup KENTUCKY - Horses, Banjo, Blue, White
$19.99
Starbucks You Are Here Coffee Mug/Cup KENTUCKY - Horses, Banjo, Blue, White picture


KNOWLES ROCKWELL HERITAGE "THE BANJO PLAYER" FIRST EDITION 1989 PLATE COA
$5.99
KNOWLES ROCKWELL HERITAGE


Vintage Postcard 1981 Disney World Banjo Kings Main Street USA 1981 Postmark
$4.99
 Vintage Postcard 1981 Disney World Banjo Kings Main Street USA 1981 Postmark picture


Banjo Barometer With Thermometer Hygrometer 490mm
$84.76
Banjo Barometer With Thermometer Hygrometer 490mm picture


ANTIQUE JAPANESE NIPPON FIGURINE SET OF 3 WOMEN GEISHA PLAYING DRUM BANJO FAN
$24.0
ANTIQUE JAPANESE NIPPON FIGURINE SET OF 3 WOMEN GEISHA PLAYING DRUM BANJO FAN picture