Your One-Stop Source For
Music Lyrics
Bass and Guitar Tabs
and More...
Music Lyrics Bass and Guitar Tabs

 

The Tabs Are Below

Learn To Read Tab
Chords Handbook
Corrections & Additions
Get Official Tab
Nickelback tabs @ 911Tabs

Band: Nickelback

Song: Throw Yourself Away

Album: The Long Road

Tuning 5-string: B E A D G

Tabbed by ClosedRoad

 

Note: First only guitar the enter with the drums

r: Let note Ring

 

Intro I

G ------------------------|

D ------------------------|

A ------------------------|

E ---------------------1--| 2x

B -1--111-111-11--11h4----|

 

Intro II

G --------------------------------|

D --------------------------------|

A --------------------------------|

E --------------------------------|

B -1--111-111-11r--4h5555-4h5555--|

 

Chorus

G --------------------------------------------------|

D --------------------------------------------------|

A --------------------------------------------------|

E -44444444-----------------------------------------|

B ---------44444444-4h55-5-5-4h55-5-5-4h5555555\0---|

 

Afther Chorus

G ------------------------------|

D ------------------------------|

A ------------------------------|

E -----4------44-------------5--|

B -11------11-----11-11111111---|

 

G ------------------------------|

D ------------------------------|

A ------------------------------|

E -----4---------------------5--|

B -11------11-----11-11111111---|

 

Chorus 1x

Intro I 4x

Intro II 1x

Chorus 1x

Afther Chorus 1x

Chorus 1x

Intro I 1x

 

Bass And Drum part

G -------------------------------------|

D -------------------------------------|

A -------------------------------------|

E --------------------1----------------|

B -1--111-111-11--11h4--1--111-111-11--|

 

Intro I 1x

Intro II 1x

 

Variation Chorus I

G --------------------------------------------------|

D --------------------------------------------------|

A --------------------------------------------------|

E -44444444-----------------------------------------|

B ---------44444444-4h555555555555555554h554h55-----|

 

Chorus 1x

Afther Chorus 2x

 

End

G --------------------------------------------------|

D --------------------------------------------------|

A --------------------------------------------------|

E -44444444-----------------------------------------|

B ---------44444444-4h5555554h5555554h5555554h55\0--|

 

That`s It I Think It`s Perfect But what you think is up to you.

Please rate it and have fun with it

 

 

Return to my Nickelback bass tabs page

The Tablature is Copyright its respective owners.

Sign Up For My Newsletter
Subscribe | Unsubscribe

Site Map | Disclaimer | Privacy Policy | Media Kit | Submissions/Corrections

Website © 2000-2014 mattsmusicpage.com. All rights reserved.

Legal & DMCA: Matt's Music Page has been providing lyrics and tabs in a legal way, paying royalties each year to a few organizations. Then, all lyrics and tabs were removed from the site. Now, there's a new owner to the site, which purchased it August 26, 2014, and he is in negotiation to obtain licensing from BMI at the moment. If you have a specific DMCA request -- please do not hesitate to contact me via the contact button on top. I will do my very best to keep this site fully legal.

Get our toolbar!

 

Starbucks You Are Here Coffee Mug/Cup KENTUCKY - Horses, Banjo, Blue, White
$19.99
Starbucks You Are Here Coffee Mug/Cup KENTUCKY - Horses, Banjo, Blue, White picture


KNOWLES ROCKWELL HERITAGE "THE BANJO PLAYER" FIRST EDITION 1989 PLATE COA
$5.99
KNOWLES ROCKWELL HERITAGE


Vintage Postcard 1981 Disney World Banjo Kings Main Street USA 1981 Postmark
$4.99
 Vintage Postcard 1981 Disney World Banjo Kings Main Street USA 1981 Postmark picture


Banjo Barometer With Thermometer Hygrometer 490mm
$84.76
Banjo Barometer With Thermometer Hygrometer 490mm picture


ANTIQUE JAPANESE NIPPON FIGURINE SET OF 3 WOMEN GEISHA PLAYING DRUM BANJO FAN
$24.0
ANTIQUE JAPANESE NIPPON FIGURINE SET OF 3 WOMEN GEISHA PLAYING DRUM BANJO FAN picture