Your One-Stop Source For
Music Lyrics
Bass and Guitar Tabs
and More...
Music Lyrics Bass and Guitar Tabs

 

The Tabs Are Below

Learn To Read Tab
Chords Handbook
Corrections & Additions
Get Official Tab
Nickelback tabs @ 911Tabs

Band/Artist: Nickelback

Song: Pusher

Instrument: Bass 5-String

Tuning: B Db Gb b E

Tabbed by: OnassBass

 

 

Intro

|-------------------------------------|

|-------------------------------------|

|-------------------------------------| 2x

|-0---5---3333-5555--0---5---3333--5--|

|-------------------------------------|

 

Verse

|-----------------------------------------------------------------|

|---------------------------------5-5-5-5-5-5-5-5-7-7-7-7-7-7-7-7-|

|-2-2-2-2-2-2-2-2-3-3-3-3-3-3-3-3---------------------------------| 3x

|-----------------------------------------------------------------|

|-----------------------------------------------------------------|

 

|-----------------------------------------------|

|-----------------------------------------------|

|-2-2-2-2-2-2-2-2-3-3-3-3-3-3-3-3---------------|

|---------------------------------5-(let ring)--|

|-----------------------------------------------|

 

Chorus

|-------------------------------------|

|--------55555--7777------------------|

|-------------------------------------| 2x

|-0---5---------------0---5---3333--5-|

|-------------------------------------|

 

Verse 2 = Verse 1 (with some variations (like --5-5-5-5-7-7-7-5h7-5h7--)

 

Chorus 2x

 

Interlude

|---------------------------------------------------------|

|---------------------------------------------------------|

|-----------------------------1111-1111-1115555-5555-5555-| 4x

|--3333-3333-3332222-2222-222-----------------------------|

|---------------------------------------------------------|

 

Interlude Outro

|--------|

|--------|

|--------|

|--------| 3x

|-0000-0-|

 

Chorus 3x

 

End

|---------------------------------------------------|

|--------55555--7777--------------------------------|

|---------------------------------------------------|

|-0---5---------------0---5---3333--5--3-(let ring)-|

|---------------------------------------------------|

 

 

 

 

Return to my Nickelback bass tabs page

The Tablature is Copyright its respective owners.

Sign Up For My Newsletter
Subscribe | Unsubscribe

Site Map | Disclaimer | Privacy Policy | Media Kit | Submissions/Corrections

Website © 2000-2014 mattsmusicpage.com. All rights reserved.

Legal & DMCA: Matt's Music Page has been providing lyrics and tabs in a legal way, paying royalties each year to a few organizations. Then, all lyrics and tabs were removed from the site. Now, there's a new owner to the site, which purchased it August 26, 2014, and he is in negotiation to obtain licensing from BMI at the moment. If you have a specific DMCA request -- please do not hesitate to contact me via the contact button on top. I will do my very best to keep this site fully legal.

Get our toolbar!