Your One-Stop Source For
Music Lyrics
Bass and Guitar Tabs
and More...
Music Lyrics Bass and Guitar Tabs

 

The Nickelback Guitar Tabs Are Below

Learn To Read Tab
Chords Handbook
Corrections & Additions
Get Official Tab
Nickelback tabs @ 911Tabs

Bottoms Up

Nickelback

Here and Now (2011)

 

Words by Chad Kroeger, Mike Kroeger, and Joey Moi

Music by Nickelback

 

NOTE: I don't know the solo, but there's a good video on YouTube of it.

 

GTR I - Drop D Tuning "Chad Kroeger" (e,B,G,D,A,D)

GTR II - Drop D Tuning "Ryan Peake" (e,B,G,D,A,D)

 

Intro

 

GTR I,II

e|-------------------------------------------------|

B|-------------------------------------------------|

G|-----------------------------------------0-----0-|

D|-12-10-12--0--------7--7--7-10--------3-----5----|

A|-12-10-12--0--x--x--8--8--8-10--x--x--3-----5----|

D|-12-10-12--0--x--x----------10--x--x--3-----5----|

 

GTR I,II

e|-------------------------------------------------|

B|-------------------------------------------------|

G|-------------------------------------------------|

D|-12-10-12--0--------7--7--7-10--------5--7--3--7-|

A|-12-10-12--0--x--x--8--8--8-10--x--x--5-----3----|

D|-12-10-12--0--x--x----------10--x--x--5-----3----|

 

GTR I,II

e|-------------------------------------------------|

B|-------------------------------------------------|

G|-----------------------------------------0-----0-|

D|-12-10-12--0--------7--7--7-10--------3-----5----|

A|-12-10-12--0--x--x--8--8--8-10--x--x--3-----5----|

D|-12-10-12--0--x--x----------10--x--x--3-----5----|

 

GTR I,II

e|-------------------------------------------------|

B|-------------------------------------------------|

G|-------------------------------------------------|

D|-12-10-12--0--------7--7--7-10-------------------|

A|-12-10-12--0--x--x--8--8--8-10-------------------|

D|-12-10-12--0--x--x----------10-------------------|

 

Verse

 

GTR I,II

e|-------------------------------------------------|

B|-------------------------------------------------|

G|-------------------------------------------------|

D|--0--7--7-----7--7-----0-----7--7-----7--------0-|

A|--0--8--8--0--8--8--0--0--0--8--8--0--8-10-12--0-|

D|--0--------0--------0--0--0--------0----10-12--0-|

PM . . . . . .

 

GTR I,II

e|-------------------------------------------------|

B|-------------------------------------------------|

G|-------------------------------------------------|

D|-----7--7-----7--7-----0-----7--7-----7--------5-|

A|-----8--8--0--8--8--0--0--0--8--8--0--8-10-12--5-|

D|-----------0--------0--0--0--------0----10-12--5-|

PM . . . . . .

 

GTR I,II

e|-------------------------------------------------|

B|-------------------------------------------------|

G|-------------------------------------------------|

D|-----7--7-----7--7-----5-----7--7-----7--------5-|

A|-----8--8--5--8--8--5--5--5--8--8--5--8-10-12--5-|

D|-----------5--------5--5--5--------5----10-12--5-|

PM . . . . . .

 

GTR I,II

e|-------------------------------------------------|

B|-------------------------------------------------|

G|-------------------------------------------------|

D|-----7--7-----7--7-----5-----7--7-----7--------3-|

A|-----8--8--5--8--8--5--5--5--8--8--5--8-10-12--3-|

D|-----------5--------5--5--5--------5----10-12--3-|

PM . . . . . .

 

Pre Chorus

 

GTR I,II

e|-------------------------------------------------|

B|-------------------------------------------------|

G|-------------------------------------------------|

D|-----------5----------10-----------3-----------0-|

A|----10-12--5----10-12-10----10-12--3----10-12--0-|

D|----10-12--5----10-12-10----10-12--3----10-12--0-|

PM . . . . . . . .

 

GTR I,II PH.

e|-------------------------------------------------|

B|-------------------------------------------------|

G|-------------------------------------------------|

D|-----7--7-----7--7-----0-------------------12-10-|

A|-----8--8--0--8--8--0--0--x--0-----3--5-10-12-10-|

D|-----------0--------0--0--x--0--5~-3--5-10-12-10-|

PM . . . . . .

 

Chorus

 

GTR I,II

e|-------------------------------------------------|

B|-------------------------------------------------|

G|-----------------------------------------0-----0-|

D|-12-10-12--0--------7--7--7-10--------3-----5----|

A|-12-10-12--0--x--x--8--8--8-10--x--x--3-----5----|

D|-12-10-12--0--x--x----------10--x--x--3-----5----|

 

GTR I,II

e|-------------------------------------------------|

B|-------------------------------------------------|

G|-------------------------------------------------|

D|-12-10-12--0--------7--7--7-10--------5--7--3--7-|

A|-12-10-12--0--x--x--8--8--8-10--x--x--5-----3----|

D|-12-10-12--0--x--x----------10--x--x--5-----3----|

 

GTR I,II

e|-------------------------------------------------|

B|-------------------------------------------------|

G|-----------------------------------------0-----0-|

D|-12-10-12--0--------7--7--7-10--------3-----5----|

A|-12-10-12--0--x--x--8--8--8-10--x--x--3-----5----|

D|-12-10-12--0--x--x----------10--x--x--3-----5----|

 

GTR I,II

e|-------------------------------------------------|

B|-------------------------------------------------|

G|-------------------------------------------------|

D|-12-10-12--0--------7--7--7-10--------5--------3-|

A|-12-10-12--0--x--x--8--8--8-10-----x--5-10-12--3-|

D|-12-10-12--0--x--x----------10-----x--5-10-12--3-|

PM . .

 

GTR I,II

e|-------------------------------------------------|

B|-------------------------------------------------|

G|-------------------------------------------------|

D|-----------5----------10-----------3-----------0-|

A|----10-12--5----10-12-10----10-12--3----10-12--0-|

D|----10-12--5----10-12-10----10-12--3----10-12--0-|

PM . . . . . . . .

 

GTR I,II

e|-------------------------------------------------|

B|-------------------------------------------------|

G|-------------------------------------------------|

D|-----7--7-----7--7-----0-----7--7-----7--------0-|

A|-----8--8--0--8--8--0--0--0--8--8--0--8-10-12--0-|

D|-----------0--------0--0--0--------0----10-12--0-|

PM . . . . . .

 

GTR I,II PH.

e|-------------------------------------------------|

B|-------------------------------------------------|

G|-------------------------------------------------|

D|-----7--7-----7--7-----0-----------------------0-|

A|-----8--8--0--8--8--0--0--x--0-----3--5-10-12--0-|

D|-----------0--------0--0--x--0--5~-3--5-10-12--0-|

PM . . . . . . .

 

Verse 2

 

GTR I,II

e|-------------------------------------------------|

B|-------------------------------------------------|

G|-------------------------------------------------|

D|-----7--7-----7--7-----0-----7--7-----7--------0-|

A|-----8--8--0--8--8--0--0--0--8--8--0--8-10-12--0-|

D|-----------0--------0--0--0--------0----10-12--0-|

PM . . . . . .

 

GTR I,II

e|-------------------------------------------------|

B|-------------------------------------------------|

G|-------------------------------------------------|

D|-----7--7-----7--7-----0-----7--7-----7--------5-|

A|-----8--8--0--8--8--0--0--0--8--8--0--8-10-12--5-|

D|-----------0--------0--0--0--------0----10-12--5-|

PM . . . . . .

 

GTR I,II

e|-------------------------------------------------|

B|-------------------------------------------------|

G|-------------------------------------------------|

D|-----7--7-----7--7-----5-----7--7-----7--------5-|

A|-----8--8--5--8--8--5--5--5--8--8--5--8-10-12--5-|

D|-----------5--------5--5--5--------5----10-12--5-|

PM . . . . . .

 

GTR I,II

e|-------------------------------------------------|

B|-------------------------------------------------|

G|-------------------------------------------------|

D|-----7--7-----7--7-----5-----7--7-----7--------3-|

A|-----8--8--5--8--8--5--5--5--8--8--5--8-10-12--3-|

D|-----------5--------5--5--5--------5----10-12--3-|

PM . . . . . .

 

Pre Chorus

Chorus

 

Bridge

 

GTR II

e|---------------------------------------------------------------------|

B|---------------------------------------------------------------------|

G|---------------------------------------------------------------------|

D|---------7----0-----------------7----0-------------------------------|

A|---------8----0-----0-0---------8----0-----0-0-12-10-8----10-8-------|

D|-12p10p0------0-----0-0-12p10p0------0-----0-0---------12------12-10-|

PM . . . . . . . . . . . .

 

GTR II

e|----------------------------------------------------------|

B|----------------------------------------------------------|

G|----------------------------------------------------------|

D|---------7----0-----------------7----0-----0-----3-----5--|

A|---------8----0-----0-0---------8----0-----0-----3-----5--|

D|-12p10p0------0-----0-0-12p10p0------0-----0-----3-----5--|

PM . .

 

Guitar Solo

 

GTR II

e|---------------------------------------------------------------------|

B|---------------------------------------------------------------------|

G|---------------------------------------------------------------------|

D|---------7----0-----------------7----0-------------------------------|

A|---------8----0-----0-0---------8----0-----0-0-12-10-8----10-8-------|

D|-12p10p0------0-----0-0-12p10p0------0-----0-0---------12------12-10-|

PM . . . . . . . . . . . .

 

GTR II

e|---------------------------------------------------------------------|

B|---------------------------------------------------------------------|

G|---------------------------------------------------------------------|

D|---------7----0-----------------7----0-------------------------------|

A|---------8----0-----0-0---------8----0-----0-0-12-10-8----10-8-------|

D|-12p10p0------0-----0-0-12p10p0------0-----0-0---------12------12-10-|

PM . . . . . . . . . . . .

 

GTR II

e|---------------------------------------------------------------------|

B|---------------------------------------------------------------------|

G|---------------------------------------------------------------------|

D|---------7----0-----------------7----0-------------------------------|

A|---------8----0-----0-0---------8----0-----0-0-12-10-8----10-8-------|

D|-12p10p0------0-----0-0-12p10p0------0-----0-0---------12------12-10-|

PM . . . . . . . . . . . .

 

GTR II

e|---------------------------------------------------------------------|

B|---------------------------------------------------------------------|

G|---------------------------------------------------------------------|

D|---------7----0-----------------7----0-------------------------------|

A|---------8----0-----0-0---------8----0-----0-0-12-10-8----10-8-------|

D|-12p10p0------0-----0-0-12p10p0------0-----0-0---------12------12-10-|

PM . . . . . . . . . . . .

 

Interlude

 

GTR I

e|------------------------------------------------------------------|

B|------------------------------------------------------------------|

G|------------------------------------------------------0-------0---|

D|--------------------------------------------------3-------5-------|

A|--------------------------------------------------3-------5-------|

D|--------------------------------------------------3-------5-------|

|

|GTR II

e|------------------------------------------------------------------|

B|------------------------------------------------------------------|

G|--7-5-7-7-----7-5-7-7-----7-5-7-7-----7-5-7-7---------0-------0---|

D|----------0-0---------0-0---------0-0---------0-0-3-------5-------|

A|--------------------------------------------------3-------5-------|

D|--------------------------------------------------3-------5-------|

PM . . . . . . . . . . . . . . . . . . . . . . . .

 

GTR I

e|------------------------------------------------------------------|

B|------------------------------------------------------------------|

G|------------------------------------------------------------------|

D|--------------------------------------------------5---7---3---7---|

A|--------------------------------------------------5-------3-------|

D|--------------------------------------------------5-------3-------|

|

|GTR II

e|------------------------------------------------------------------|

B|------------------------------------------------------------------|

G|--7-5-7-7-----7-5-7-7-----7-5-7-7-----7-5-7-7---------------------|

D|----------0-0---------0-0---------0-0---------0-0-5---7---3---7---|

A|--------------------------------------------------5-------3-------|

D|--------------------------------------------------5-------3-------|

PM . . . . . . . . . . . . . . . . . . . . . . . .

 

GTR I

e|------------------------------------------------------------------|

B|------------------------------------------------------------------|

G|------------------------------------------------------0-------0---|

D|--------------------------------------------------3-------5-------|

A|--------------------------------------------------3-------5-------|

D|--------------------------------------------------3-------5-------|

|

|GTR II

e|------------------------------------------------------------------|

B|------------------------------------------------------------------|

G|--7-5-7-7-----7-5-7-7-----7-5-7-7-----7-5-7-7---------0-------0---|

D|----------0-0---------0-0---------0-0---------0-0-3-------5-------|

A|--------------------------------------------------3-------5-------|

D|--------------------------------------------------3-------5-------|

PM . . . . . . . . . . . . . . . . . . . . . . . .

 

GTR I

e|------------------------------------------------------------------|

B|--------------------------------------------------8b--------------|

G|------------------------------------------------------------------|

D|------------------------------------------------------------------|

A|------------------------------------------------------------------|

D|------------------------------------------------------------------|

|

|GTR II

e|------------------------------------------------------------------|

B|------------------------------------------------------------------|

G|--7-5-7-7-----7-5-7-7-----7-5-7-7-----7-5-7-7---------------------|

D|----------0-0---------0-0---------0-0---------0-0-----------------|

A|------------------------------------------------------PKSLD-------|

D|------------------------------------------------------PKSLD--/12\-|

PM . . . . . . . . . . . . . . . . . . . . . . . .

 

Chorus 2

 

GTR I,II

e|-------------------------------------------------|

B|-------------------------------------------------|

G|-----------------------------------------0-----0-|

D|-12-10-12--0--------7--7--7-10--------3-----5----|

A|-12-10-12--0--x--x--8--8--8-10--x--x--3-----5----|

D|-12-10-12--0--x--x----------10--x--x--3-----5----|

 

GTR I,II

e|-------------------------------------------------|

B|-------------------------------------------------|

G|-------------------------------------------------|

D|-12-10-12--0--------7--7--7-10--------5--7--3--7-|

A|-12-10-12--0--x--x--8--8--8-10--x--x--5-----3----|

D|-12-10-12--0--x--x----------10--x--x--5-----3----|

 

GTR I,II

e|-------------------------------------------------|

B|-------------------------------------------------|

G|-----------------------------------------0-----0-|

D|-12-10-12--0--------7--7--7-10--------3-----5----|

A|-12-10-12--0--x--x--8--8--8-10--x--x--3-----5----|

D|-12-10-12--0--x--x----------10--x--x--3-----5----|

 

GTR I,II

e|-------------------------------------------------|

B|-------------------------------------------------|

G|-------------------------------------------------|

D|-12-10-12--0--------7--7--7-10--------5--------3-|

A|-12-10-12--0--x--x--8--8--8-10-----x--5-10-12--3-|

D|-12-10-12--0--x--x----------10-----x--5-10-12--3-|

PM . .

 

GTR I,II

e|-------------------------------------------------|

B|-------------------------------------------------|

G|-------------------------------------------------|

D|-----------5----------10-----------3-----------0-|

A|----10-12--5----10-12-10----10-12--3----10-12--0-|

D|----10-12--5----10-12-10----10-12--3----10-12--0-|

PM . . . . . . . .

 

GTR I,II

e|-------------------------------------------------|

B|-------------------------------------------------|

G|-------------------------------------------------|

D|-----7--7-----7--7-----0-----7--7-----7--------3-|

A|-----8--8--0--8--8--0--0--0--8--8--0--8-10-12--3-|

D|-----------0--------0--0--0--------0----10-12--3-|

PM . . . . . .

 

GTR I,II

e|-------------------------------------------------|

B|-------------------------------------------------|

G|-------------------------------------------------|

D|-----------5----------10-----------3-----------0-|

A|----10-12--5----10-12-10----10-12--3----10-12--0-|

D|----10-12--5----10-12-10----10-12--3----10-12--0-|

PM . . . . . . . .

 

GTR I,II

e|-------------------------------------------------|

B|-------------------------------------------------|

G|-------------------------------------------------|

D|-----7--7-----7--7-----0-----7--7-----7--------0-|

A|-----8--8--0--8--8--0--0--0--8--8--0--8-10-12--0-|

D|-----------0--------0--0--0--------0----10-12--0-|

PM . . . . . .

 

GTR I,II

e|-------------------------------------------------|

B|-------------------------------------------------|

G|-------------------------------------------------|

D|-----7--7-----7--7-----0-------------------------|

A|-----8--8--0--8--8--0--0-------------------------|

D|-----------0--------0--0-------------------------|

PM . .

 

 

| b bend

| r release bend

|PH. pinch harmonic

|fbk feedback

| . palm-mute

| / slide up

| \ slide down

| h hammer-on

| p pull-off

| ~ vibrato

| + harmonic

| x Mute note

===============================================================================

Return to my Nickelback Guitar Tabs page

The Nickelback Guitar Tablature is Copyright its respective owners.

Sign Up For My Newsletter
Subscribe | Unsubscribe

Site Map | Disclaimer | Privacy Policy | Media Kit | Submissions/Corrections

Website © 2000-2014 mattsmusicpage.com. All rights reserved.

Legal & DMCA: Matt's Music Page has been providing lyrics and tabs in a legal way, paying royalties each year to a few organizations. Then, all lyrics and tabs were removed from the site. Now, there's a new owner to the site, which purchased it August 26, 2014, and he is in negotiation to obtain licensing from BMI at the moment. If you have a specific DMCA request -- please do not hesitate to contact me via the contact button on top. I will do my very best to keep this site fully legal.

Get our toolbar!

 

Zippo Lighter - The Rolling Stones Street Chrome NEW
$17.87
Zippo Lighter - The Rolling Stones Street Chrome NEW picture


The Rolling Stones wristlet key fob holder key chain
$5.0
The Rolling Stones wristlet key fob holder key chain picture


STERN THE ROLLING STONES LE PINBALL MACHINE NOS MIRRORED BACKGLASS. VERY RARE.
$618.0
STERN THE ROLLING STONES LE PINBALL MACHINE NOS MIRRORED BACKGLASS. VERY RARE. picture


Rolling Stones 1984 original TONGUE TELEPHONE unused nm box and with manuel
$375.0
 Rolling Stones 1984 original TONGUE TELEPHONE unused nm box and with manuel  picture


NEWSPAPER - KRLA BEAT - CHER, BONO, ROLLING STONES, AND THE LEAVES - 1965
$24.99
NEWSPAPER - KRLA BEAT - CHER, BONO, ROLLING STONES, AND THE LEAVES - 1965 picture