Your One-Stop Source For
Music Lyrics
Bass and Guitar Tabs
and More...
>Music Lyrics Bass and Guitar Tabs

 

The Tabs Are Below

Learn To Read Tab
Chords Handbook
Corrections & Additions
Get Official Tab
Nickelback tabs @ 911Tabs

Band:Nickelback

Song:Hero-spiderman soundtrack

Submiter:Tyler Spencer

Corrected by: Shanee' Barron (corruptionangel)

http://corruptionangel.homestead.com

 

Verse x2

G|-------------------------||

D|-------------------------||

A|-------------------------||

E|---4-4-4-4-0-0-0-0-0-0---||

 

Pre-Chorus x1

G|------------------------------------------||

D|------------------------------------------||

A|------------------------------------------||

E|--3-3-3-3-3-5-5-5-5-5-0-0-0-0-0-0-0-0-0-0-||

 

Chorus

pt.1G|------------------------------------------||

D|------------------------------------------||

A|------------------------------------------||

E|---3-3-3-3-3-5-5-5-5-5-7-7-7-7-7-7-7-7-7-5||

 

pt.2G|----------------------------------------------||

D|----------------------------------------------||

A|----------------------------------------------||

E|--3-3-3-3-3-3-5-5-5-5-5-5-0-0-0-0-0-0-0-0-0-0-||

 

Verse x2

Pre-Chorus x1

Chorus x1

 

Bridge(dont do until "thats why i fear it wont do")

G|--------------------||

D|--------------------||

A|--------------------||

E|0-0-0-0-0-0-0-0-0-0-||

 

Chorusx1

Chrous pt.1 x2

Chorus pt.2 x1

===========

 

 

Band:Nickelback

Song:Hero-spiderman soundtrack

Submiter:Tyler Spencer

 

Verse x2

G|-------------------------||

D|-------------------------||

A|-------------------------||

E|---4-4-4-4-0-1-1-1-1-0---||

 

Pre-Chorus x1

G|------------------------------------------||

D|------------------------------------------||

A|------------------------------------------||

E|--3-3-3-3-3-4-4-4-4-4-0-0-0-0-0-0-0-0-0-0-||

 

Chorus

pt.1G|------------------------------------------||

D|------------------------------------------||

A|------------------------------------------||

E|---3-3-3-3-3-5-5-5-5-5-7-7-7-7-7-7-7-7-7--||

 

pt.2G|----------------------------------------------||

D|----------------------------------------------||

A|----------------------------------------------||

E|--3-3-3-3-3-3-5-5-5-5-5-5-0-0-0-0-0-0-0-0-0-0-||

 

Verse x2

Pre-Chorus x1

Chorus x1

 

Bridge(dont do until "thats why i fear it wont do")

G|--------------------||

D|--------------------||

A|--------------------||

E|0-0-0-0-0-0-0-0-0-0-||

 

Chorusx1

Chrous pt.1 x2

Chorus pt.2 x1

 

aight aight so there it is my fellow Bass players,and crackheads who

enjoy staring at alot of numbers and dashes,that is it.

this is my first tab so any suggestions,contact me at

iowa_klown666@hotmail.com

 

 

Return to my Nickelback bass tabs page

The Tablature is Copyright its respective owners.

Sign Up For My Newsletter
Subscribe | Unsubscribe

Site Map | Disclaimer | Privacy Policy | Media Kit | Submissions/Corrections

Website © 2000-2014 mattsmusicpage.com. All rights reserved.

Legal & DMCA: Matt's Music Page has been providing lyrics and tabs in a legal way, paying royalties each year to a few organizations. Then, all lyrics and tabs were removed from the site. Now, there's a new owner to the site, which purchased it August 26, 2014, and he is in negotiation to obtain licensing from BMI at the moment. If you have a specific DMCA request -- please do not hesitate to contact me via the contact button on top. I will do my very best to keep this site fully legal.

Get our toolbar!

 

The Rolling Stones-Hot Rocks-Recycled Record Bowl
$4.5
The Rolling Stones-Hot Rocks-Recycled Record Bowl picture


CT PHOTO abs-859 Mick Jagger Rolling Stones
$9.99
CT PHOTO abs-859 Mick Jagger Rolling Stones picture


S.T. Dupont Lighter MiniJet Rolling Stones - Black w/ Swarovski
$298.0
S.T. Dupont Lighter MiniJet Rolling Stones - Black w/ Swarovski picture


RocknRoll comics the rolling stones any rolling stones fan has to have this .
$0.99
RocknRoll comics the rolling stones any rolling stones fan has to have this . picture


Rolling Stones Casino Boogie Poker Set LIMITED EDITION only 1000 sets
$179.95
Rolling Stones Casino Boogie Poker Set LIMITED EDITION only 1000 sets picture