Your One-Stop Source For
Music Lyrics
Bass and Guitar Tabs
and More...
Music Lyrics Bass and Guitar Tabs

 

The Tabs Are Below

Learn To Read Tab
Chords Handbook
Corrections & Additions
Get Official Tab
Nickelback tabs @ 911Tabs

Hangnail by Nickelback

Submitted by Templeton 101

Bassist Mike Kroeger

This song is tuned from lowest to highest : (B, Gb, B, E)

This song goes pretty fast, especially in the verses. I am 100% sure, no doubt

about it that this tab is correct. It’s kind of hard, but there isn’t much to it.

 

/Slide up

\Slide down

^bend

 

Intro

|----------------------------------------------------------------------------------|

|----------------------------------------------------------------------------------|

|----------------------------------------------------------------------------------|

|-/12--0--9--10--9--10--9--10--9--10/15--12\0--9--10--9--10--9--10--9--10/17--12\0-|

 

|----------------------------------------------------------------|

|----------------------------------------------------------------|

|----------------------------------------------------------------|

|-9--10--9--10--9--10--9--10/12\0--5--3/10--9--10----------------|

In the beginning, you help the electric finish it’s intro with the 5 3/10 9 10. On

the last part of the song, at (2:56) you play the regular into 2 times and the play

5 3/10 9 10 two extra times and end on 12 12.

 

Verse

|-------------------22------------44-------------------------22-------------44-----|

|----------------------------------------------------------------------------------|

|----------------------------------------8-----------------------------------------|

|-/12--0----002/3---------3/5-----------------0-----002/3---------3/5--------------|

 

|----------------------22-----------44----------------------|

|-----------------------------------------------------------|

|-----------------------------------------------------------|

|-/10--0----002/3---------3/5-----------10---10--10---9----8|

 

Pre-chorus

|------------------------------|

|------------------------------|

|------------------------------|

|---0--0--0--0--5--5--5--5--3--|

You can tell when you start playing… it’s when all of the other instruments except

the one guitar start

 

Chorus Part 1

|-------------------------------------------------|

|-------------------------------------------------|

|--5--5-------------------------------------------|

|----------3--3--3--3----5--5--5--5---5--5--5--5--|

Every time you change frets, you leave a noticeable space between notes. Also, when

you get to playing the chorus 4 times, there are still the same amount of notes, but it

gets rhythmically different. It’s very easy to figure out though if you listen to the song.

 

Chorus Part 2

|-------------------------|

|-------------------------|

|-------------------------|

|--10-----10--10--9--8----|

 

Bridge

|---------------------------------|

|---------------------------------|

|-----------------------------3---|

|-12^----15----0---3---0------5---|

The second time the electric plays this, you help him finish it with the 0 3 0 etc.

You bend up to Gb.

 

Intro x1 (0:11)

Verse x2 (0:22)

Pre-chorus x1 (0:53)

Chorus Part 1 x2 (0:55)

Chorus Part 2 x1 (1:07)

Intro x1 (1:10)

Verse x2 (1:21)

Pre-chorus x1 (1:51)

Chorus Part 1 x4 (1:54)

Chorus Part 2 x1 (2:17)

Bridge x6 (2:25)

Chorus Part 2 x1 (2:42)

Pre-chorus x1 (2:53)

Chorus Part 1 x4 (2:56)

Chorus Part 2 x1 (3:18)

Intro x2, using the stipulations listed underneath the intro tab (3:21)

 

 

 

 

 

 

Return to my Nickelback bass tabs page

The Tablature is Copyright its respective owners.

Sign Up For My Newsletter
Subscribe | Unsubscribe

Site Map | Disclaimer | Privacy Policy | Media Kit | Submissions/Corrections

Website © 2000-2014 mattsmusicpage.com. All rights reserved.

Legal & DMCA: Matt's Music Page has been providing lyrics and tabs in a legal way, paying royalties each year to a few organizations. Then, all lyrics and tabs were removed from the site. Now, there's a new owner to the site, which purchased it August 26, 2014, and he is in negotiation to obtain licensing from BMI at the moment. If you have a specific DMCA request -- please do not hesitate to contact me via the contact button on top. I will do my very best to keep this site fully legal.

Get our toolbar!