Your One-Stop Source For
Music Lyrics
Bass and Guitar Tabs
and More...
Music Lyrics Bass and Guitar Tabs

 

The Tabs Are Below

Learn To Read Tab
Chords Handbook
Corrections & Additions
Get Official Tab
Nickelback tabs @ 911Tabs

Band: Nickelback

Song: Flat On The Floor

Album: The Long Road

Tuning 5string: B E A D G

Tabbed by ClosedRoad

 

Note: Slide is from guitar

 

Intro /Chorus

G -----------------------------------------|

D -----------------------------------------|

A -----------------------------------------|

E ------11-1-3313-5313------11-1-333-------| 2x

B -3313---3------------3313---3------1-111-|

 

verse

G -------------------------------------------|

D -------------------------------------------|

A -------------------------------------------|

E -----------------1-1h3----------------1/7--|

B --33--3-33--33--1-------33--3-33--33-1-----|

 

Chorus 2x

verse 2x

chorus 2x

 

Bridge

G -----------------------------|

D -----------------------------|

A -----------------------------|

E ---5\0-------5\0-----0/5-56--| 2x

B -33-----3-33-----3-33--------|

 

Fill

G ---------------|

D ---------------|

A ---------------|

E ---------------|

B --333333333-3--|

 

G -----------------------------------------------|

D -----------------------------------------------|

A -----------------------------------------------|

E ------11-1-3313--5313-------11-1-333-----------|

B -3313---3--------------3313---3------1-11--33--|

 

G ----------------------------|

D ----------------------------|

A ----------------------------|

E --1-1h3----------------1/7--|

B -1-------33--3-33--33-1-----|

 

Chorus 1x

 

Chorus variation

G ------------------------------------------|

D ------------------------------------------|

A ------------------------------------------|

E ------11-1--3313-5313------11-1-333/7\3---|

B -3313---3-------------3313---3------------|

 

Chorus 2x

 

End

G ------------------------|

D ------------------------|

A ------------------------|

E --------------3---------|

B -33--3-33--33---1--333--|

 

That`s it I think It`s 99.9% Correct.

Enjoy And please rate it.

 

 

Return to my Nickelback bass tabs page

The Tablature is Copyright its respective owners.

Sign Up For My Newsletter
Subscribe | Unsubscribe

Site Map | Disclaimer | Privacy Policy | Media Kit | Submissions/Corrections

Website © 2000-2014 mattsmusicpage.com. All rights reserved.

Legal & DMCA: Matt's Music Page has been providing lyrics and tabs in a legal way, paying royalties each year to a few organizations. Then, all lyrics and tabs were removed from the site. Now, there's a new owner to the site, which purchased it August 26, 2014, and he is in negotiation to obtain licensing from BMI at the moment. If you have a specific DMCA request -- please do not hesitate to contact me via the contact button on top. I will do my very best to keep this site fully legal.

Get our toolbar!