Your One-Stop Source For
Music Lyrics
Bass and Guitar Tabs
and More...
>Music Lyrics Bass and Guitar Tabs

 

The Tabs Are Below

Learn To Read Tab
Chords Handbook
Corrections & Additions
Get Official Tab
Nickelback tabs @ 911Tabs

Band: NICKELBACK - Song: Feelin way too Damn good

 

Tabbed By:KWISTUFA

I cant stand this band but had to work it out for my cover band.

Couldn't find a TAB so here it is...

VERSE

G------------------------------------------------

D------------------------------------------------

A-----3--2---------------------------------------

D--0--------5------------------------------------

BRIDGE B4 CHORUS

G------------------------------------------------

D---3-----5--5-----------------------------------

A------3-----------------------------------------

D----------------3--5--0-0-0-0-0-0---------------

CHORUS

G------------------------------------------------

D------------------------------------------------

A-1----3--------------5-3-5-3-0------------------

D---3----5---3--5--0-----------5-5---------------

 

Thats it in a Nutshell. There's slides and a bit

of feel to be added but listen and you'll be right.

I hope we dont have to play it for too long......

 

 

Return to my Nickelback bass tabs page

The Tablature is Copyright its respective owners.

Sign Up For My Newsletter
Subscribe | Unsubscribe

Site Map | Disclaimer | Privacy Policy | Media Kit | Submissions/Corrections

Website © 2000-2014 mattsmusicpage.com. All rights reserved.

Legal & DMCA: Matt's Music Page has been providing lyrics and tabs in a legal way, paying royalties each year to a few organizations. Then, all lyrics and tabs were removed from the site. Now, there's a new owner to the site, which purchased it August 26, 2014, and he is in negotiation to obtain licensing from BMI at the moment. If you have a specific DMCA request -- please do not hesitate to contact me via the contact button on top. I will do my very best to keep this site fully legal.

Get our toolbar!

 

SUZUKI HARMONICA Manji M-20 PROFESSIONAL 10 HOLE 20 REED DIATONIC KEY G FREE P+H
$77.98
SUZUKI HARMONICA Manji M-20 PROFESSIONAL 10 HOLE 20 REED DIATONIC KEY G FREE P+H picture


NEW HOHNER ECHO C-G HARMONICA 96 HOLE 2 X 48 REED DOUBLE SIDED 56/96 HARP
$148.19
NEW HOHNER ECHO C-G HARMONICA 96 HOLE 2 X 48 REED DOUBLE SIDED 56/96 HARP picture


NEW LEE OSKAR NATURALMINOR DIATONIC HARP F HARMONICA 10 HOLE 20 REED 1910N
$42.74
NEW LEE OSKAR NATURALMINOR DIATONIC HARP F HARMONICA 10 HOLE 20 REED 1910N picture


NEW HOHNER CX12 CHROMATIC HARMONICA KEY OF C 12 HOLE 48 REED BLACK 7545/48
$234.01
NEW HOHNER CX12 CHROMATIC HARMONICA KEY OF C 12 HOLE 48 REED BLACK 7545/48 picture


VINTAGE RARE HARMONICA PIANO KEYS BANDMASTER TOY
$49.99
VINTAGE RARE HARMONICA PIANO KEYS BANDMASTER TOY picture