Your One-Stop Source For
Music Lyrics
Bass and Guitar Tabs
and More...
Music Lyrics Bass and Guitar Tabs

 

The Tabs Are Below

Learn To Read Tab
Chords Handbook
Corrections & Additions
Get Official Tab
Nickelback tabs @ 911Tabs

Song- Do This Anymore

Band- Nickelback

Tabber- Adam Geiman (needaband1115)

Tuning- Standard 5 String (B,E,A,D,G)

 

 

Intro-

G--------------------|

D--------------------|

A----------------1~--|

E--1~/--4~\----------|

B------------4~------|

 

Verse-

G----------------------------|

D---------------------------*|

A--------------------11111---|

E--11111-44444--------------*|

B--------------44444---------|

 

Prechorus-

G---------------|

D---------------|

A---------------|

E----------1111-|

B--44444444-----|

 

Chorus- Chorus Variation

G------------------------------||-------------------------------||

D------------------------------||-------------------------------||

A---------------------1111111--||-----------------------1--1-3--||

E--------------44--4-----------||---------------4444--4---------||

B--11--1--44--4----------------||--11xxx--44xx4-----------------||

 

After Chorus Thing (also thrown in other places)

G-------------------------------|

D-------------------------------|

A----------------------1h3------|

E--1111------1111----1----------|

B-------4444-------4------------|

 

Fill Right Before Guitar Solo

G--------------------------------|

D--------------------------------|

A--/10-10h13-13-13--10h13-13-13--|

E--------------------------------|

B--------------------------------|

 

 

Return to my Nickelback bass tabs page

The Tablature is Copyright its respective owners.

Sign Up For My Newsletter
Subscribe | Unsubscribe

Site Map | Disclaimer | Privacy Policy | Media Kit | Submissions/Corrections

Website © 2000-2014 mattsmusicpage.com. All rights reserved.

Legal & DMCA: Matt's Music Page has been providing lyrics and tabs in a legal way, paying royalties each year to a few organizations. Then, all lyrics and tabs were removed from the site. Now, there's a new owner to the site, which purchased it August 26, 2014, and he is in negotiation to obtain licensing from BMI at the moment. If you have a specific DMCA request -- please do not hesitate to contact me via the contact button on top. I will do my very best to keep this site fully legal.

Get our toolbar!

 

CA PHOTO bde-128 Rolling Stones Music Group
$17.0
CA PHOTO bde-128 Rolling Stones Music Group picture


Rolling stones postcard
$0.75
Rolling stones postcard picture


ROCK N ROLL COMICS GUNS N ROSES METALLICA MOTLEY CRUE THE ROLLING STONES 1 2 4 6
$9.99
ROCK N ROLL COMICS GUNS N ROSES METALLICA MOTLEY CRUE THE ROLLING STONES 1 2 4 6 picture


A & B.C. GUM 1965 SCARCE CARD # 35 ROLLING STONES--ROLLING STONES " A NICE CARD
$7.8
A & B.C. GUM 1965 SCARCE CARD  # 35 ROLLING STONES--ROLLING STONES


Rolling Stones Zippo Windproof Lighter
$18.0
Rolling Stones Zippo Windproof Lighter picture