Your One-Stop Source For
Music Lyrics
Bass and Guitar Tabs
and More...
>Music Lyrics Bass and Guitar Tabs

 

New Found Glory

The Tabs Are Below

Learn To Read Tab
Chords Handbook
Corrections & Additions
Get Official Tab
New Found Glory tabs @ 911Tabs

YOU'VE GOT A FRIEND IN PENNSYLVANIA - A New Found Glory

-------------------------------------------------------------------------------

 

By: bowhunter33_dh@yahoo.com

 

Intro

e|---------------------------------------------------------------------------|

B|---------------------------------------------------------------------------|

G|-5-5-5-5-----------------------------5-5-5-5-------------------------------|

D|-5-5-5-5--5-5-5-5--7-7-7-7--3-3-3-3--5-5-5-5--5-5-5-5--7-7-7-7--3-3-3-3----|

A|-3-3-3-3--5-5-5-5--7-7-7-7--3-3-3-3--3-3-3-3--5-5-5-5--7-7-7-7--3-3-3-3----|

E|----------3-3-3-3--5-5-5-5--1-1-1-1-----------3-3-3-3--5-5-5-5--1-1-1-1----|

 

Verse - Palm Mute where necessary

e|---------------------------------------------------------------------------|

B|---------------------------------------------------------------------------|

G|-5-x-5-x-5-x-5-x-------------------5-x-5-x-5-x-5-x-------------------------|

D|-5-x-5-x-5-x-5-x--3-x-3-x-3-x-3-x--5-x-5-x-5-x-5-x--3-3-3-3-3-3-3-3--------|

A|-3-x-3-x-3-x-3-x--3-x-3-x-3-x-3-x--3-x-3-x-3-x-3-x--3-3-3-3-3-3-3-3--------|

E|------------------1-x-1-x-1-x-1-x-------------------1-1-1-1-1-1-1-1--------|

 

e|---------------------------------------------------------------------------|

B|---------------------------------------------------------------------------|

G|-5-x-5-x-5-x-5-x-------------------5-x-5-x-5-x-5-x-------------------------|

D|-5-x-5-x-5-x-5-x--3-x-3-x-3-x-3-x--5-x-5-x-5-x-5-x--3-3-3-3-3-3-3-3--------|

A|-3-x-3-x-3-x-3-x--3-x-3-x-3-x-3-x--3-x-3-x-3-x-3-x--3-3-3-3-3-3-3-3--------|

E|------------------1-x-1-x-1-x-1-x-------------------1-1-1-1-1-1-1-1--------|

 

Chorus

e|---------------------------------------------------------------------------|

B|---------------------------------------------------------------------------|

G|-5-5-----------------5-5-----------------5-5-------------------------------|

D|-5-5--5-5--7-7--3-3--3-3--5-5--7-7--3-3--3-3--5-5--7-7--3-3--7-7--5-5------|

A|-3-3--5-5--7-7--3-3--3-3--5-5--7-7--3-3--3-3--5-5--7-7--3-3--7-7--5-5------|

E|------3-3--5-5--1-1-------3-3--5-5--1-1-------3-3--5-5--1-1--5-5--3-3------|

 

e|---------------------------------------------------------------------------|

B|---------------------------------------------------------------------------|

G|-5-5-5-5-5-5-5-5-5-5-5-5-5-5-5-5-------------------------------------------|

D|-5-5-5-5-5-5-5-5-5-5-5-5-5-5-5-5--5-5-5-5-5-5-5-5-5-5-5-5-5-5-5-5----------|

A|-3-3-3-3-3-3-3-3-3-3-3-3-3-3-3-3--5-5-5-5-5-5-5-5-5-5-5-5-5-5-5-5----------|

E|----------------------------------3-3-3-3-3-3-3-3-3-3-3-3-3-3-3-3----------|

 

Verse - Palm Mute where necessary

e|---------------------------------------------------------------------------|

B|---------------------------------------------------------------------------|

G|-5-x-5-x-5-x-5-x-------------------5-x-5-x-5-x-5-x-------------------------|

D|-5-x-5-x-5-x-5-x--3-x-3-x-3-x-3-x--5-x-5-x-5-x-5-x--3-3-3-3-3-3-3-3--------|

A|-3-x-3-x-3-x-3-x--3-x-3-x-3-x-3-x--3-x-3-x-3-x-3-x--3-3-3-3-3-3-3-3--------|

E|------------------1-x-1-x-1-x-1-x-------------------1-1-1-1-1-1-1-1--------|

 

e|---------------------------------------------------------------------------|

B|---------------------------------------------------------------------------|

G|-5-x-5-x-5-x-5-x-------------------5-x-5-x-5-x-5-x-------------------------|

D|-5-x-5-x-5-x-5-x--3-x-3-x-3-x-3-x--5-x-5-x-5-x-5-x--3-3-3-3-3-3-3-3--------|

A|-3-x-3-x-3-x-3-x--3-x-3-x-3-x-3-x--3-x-3-x-3-x-3-x--3-3-3-3-3-3-3-3--------|

E|------------------1-x-1-x-1-x-1-x-------------------1-1-1-1-1-1-1-1--------|

 

Bridge - Half Beat Strumming

e|---------------------------------------------------------------------------|

B|---------------------------------------------------------------------------|

G|-5-5-5-5-----------------------------5-5-5-5-------------------------------|

D|-5-5-5-5--5-5-5-5--7-7-7-7--3-3-3-3--3-3-3-3--5-5-5-5--7-7-7-7--3-3-3-3----|

A|-3-3-3-3--5-5-5-5--7-7-7-7--3-3-3-3--3-3-3-3--5-5-5-5--7-7-7-7--3-3-3-3----|

E|----------3-3-3-3--5-5-5-5--1-1-1-1-----------3-3-3-3--5-5-5-5--1-1-1-1----|

 

e|---------------------------------------------------------------------------|

B|---------------------------------------------------------------------------|

G|-5-5-5-5-----------------------------5-5-5-5-------------------------------|

D|-5-5-5-5--5-5-5-5--7-7-7-7--3-3-3-3--3-3-3-3--5-5-5-5--7-7-7-7--3-3-3-3----|

A|-3-3-3-3--5-5-5-5--7-7-7-7--3-3-3-3--3-3-3-3--5-5-5-5--7-7-7-7--3-3-3-3----|

E|----------3-3-3-3--5-5-5-5--1-1-1-1-----------3-3-3-3--5-5-5-5--1-1-1-1----|

 

Verse

Chorus

Bridge - x4 - End on 3-5-5 on A string.

 

I had a request for this tab, so I thought I need a new challenge. I'm pretty

sure this is correct. Requests are welcome. If you have any comments or

questions or anything, e-mail me at bowhunter33_dh@yahoo.com. New Found Glory

kicks ass!!

 

 

Return to my New Found Glory tabs page

The Tablature is Copyright its respective owners.

Sign Up For My Newsletter
Subscribe | Unsubscribe

Site Map | Disclaimer | Privacy Policy | Media Kit | Submissions/Corrections

Website © 2000-2014 mattsmusicpage.com. All rights reserved.

Legal & DMCA: Matt's Music Page has been providing lyrics and tabs in a legal way, paying royalties each year to a few organizations. Then, all lyrics and tabs were removed from the site. Now, there's a new owner to the site, which purchased it August 26, 2014, and he is in negotiation to obtain licensing from BMI at the moment. If you have a specific DMCA request -- please do not hesitate to contact me via the contact button on top. I will do my very best to keep this site fully legal.

Get our toolbar!

 

Tobacco Smoke Stone Rolling Stones tongue cigarette pipe cigar holder FREE GIFT
$14.95
Tobacco Smoke Stone Rolling Stones tongue cigarette pipe cigar holder FREE GIFT picture


1980 Bally Rolling Stones Reproduction Score Card Set
$4.99
1980 Bally Rolling Stones Reproduction Score Card Set picture


ROLLING STONES ROCK TUMBLER REFILL KIT - NEW - SEALED
$14.0
ROLLING STONES ROCK TUMBLER REFILL KIT - NEW - SEALED picture


Vintage Rolling Stones "Out of Our Heads" Pin Button Rare
$8.91
Vintage Rolling Stones


RECORD COASTERS Rolling Stones 40 Licks Parody Rock Set of 2 Kitchen Drink Table
$11.98
RECORD COASTERS Rolling Stones 40 Licks Parody Rock Set of 2 Kitchen Drink Table picture