Your One-Stop Source For
Music Lyrics
Bass and Guitar Tabs
and More...
Music Lyrics Bass and Guitar Tabs

 

New Found Glory

The Tabs Are Below

Learn To Read Tab
Chords Handbook
Corrections & Additions
Get Official Tab
New Found Glory tabs @ 911Tabs

New Found Glory- Winter Of '95

 

By:anse182(anse182@virgilio.it)

 

 

STANDARD TUNING (EADGBe)

 

This tab is 95% correct.

 

I wrote a version just for 1 guitar, because it's very hard to find out what both guitars do in this beautiful song.

 

I'm sure about Pre-Chorus and Chorus, and I think that Intro and Verse is almost in this way.

This is a great song from a great band. ENJOY YOURSELF!!!

 

INTRO: ("Nobody likes us... nobody")

 

Figure out from yourself the rythm just listening to the CD, it's very easy

Play it also with some armonics if you want

 

e|-----------------------------------------------------

B|-----------------------------------------------------

G|-------77----11-11---99----------77--66--44----------

D|---7---77----11-11---99-----77---77--66--44----------

A|---7---55----9--9----77-----77---55--44--22----------

E|---5------------------------55-----------------------

 

 

e|-------------------------------------------------------

B|-------------------------------------------------------

G|-------77----11-11---99----------77--66--44---------7--

D|---7---77----11-11---99-----77---77--66--44-----7---7-7

A|---7---55----9--9----77-----77---55--44--22-----7---5-7

E|---5------------------------55------------------5-----5

 

 

VERSE:

 

e|-----------------------------------------------------

B|-----------------------------------------------------

G|-------77----11-11---99----------77--66--44----------

D|---7---77----11-11---99-----77---77--66--44----------

A|---7---55----9--9----77-----77---55--44--22----------

E|---5------------------------55-----------------------

 

 

e|------------------------------------------------

B|------------------------------------------------

G|-------77----11-11---99----------77--66--44-----

D|---7---77----11-11---99-----77---77--66--44-----

A|---7---55----9--9----77-----77---55--44--22-----

E|---5------------------------55------------------

 

 

PRE-CHORUS:

 

e|----------------------------------------------------------------

B|----------------------------------------------------------------

G|----------7777-----------777----11-9-7-----------77--99---77 99

D|---7777---7777----7777---777----11-9-7-----------77--99---77--99

A|---7777---5555----7777---555----9--7-5-----------55--77---55--77

E|---5555-----------5555------------------------------------------

**** **** **** *** *=Palm Muted

 

e|----------------------------------------------------------------

B|----------------------------------------------------------------

G|----------7777-----------777----11-9-7-----------77--99---77 99

D|---7777---7777----7777---777----11-9-7-----------77--99---77--99

A|---7777---5555----7777---555----9--7-5-----------55--77---55--77

E|---5555-----------5555------------------------------------------

**** **** **** ***

 

 

 

 

CHORUS:

 

I wrote the chorus in two parts.

This is the first ("Sometimes I... that I don't have")

 

 

e|--------------------

B|--------------------

G|--1111--77--99------

D|--1111--77--99--77-- x3

A|--9-9---55--77--77--

E|----------------55--

 

 

e|-----------------------

B|-----------------------

G|-4444---6/7777----9999-

D|-4444---6/7777----9999- x1

A|-2222---4/5555----7777-

E|-----------------------

 

 

Now the second part ("The joke's on you...")

 

 

e|--------------------------------------

B|--------------------------------------

G|-----99-------1111----77-------99--77-

D|-77--99--77---1111----77--77---99--77-

A|-77--77--77---9-9-----55--77---77--55-

E|-55------55---------------55----------

 

e|----------------------------------------------

B|----------------------------------------------

G|-----99-------1111----77-------99--77-----7---

D|-77--99--77---1111----77--77---99--77---7-7-7-

A|-77--77--77---9-9-----55--77---77--55---7-5-7-

E|-55------55---------------55------------5---5-

 

 

Repeat Verse, Pre-chorus and Chorus listening to the song.

It's not a very easy song, so you better listen it many times.

This is my first tab, e-mail me for question, comments and to correct this tab, if you need!

 

And remember...

 

"Nothing gold can stay"

 

ENJOY :)

 

 

Return to my New Found Glory tabs page

The Tablature is Copyright its respective owners.

Sign Up For My Newsletter
Subscribe | Unsubscribe

Site Map | Disclaimer | Privacy Policy | Media Kit | Submissions/Corrections

Website © 2000-2014 mattsmusicpage.com. All rights reserved.

Legal & DMCA: Matt's Music Page has been providing lyrics and tabs in a legal way, paying royalties each year to a few organizations. Then, all lyrics and tabs were removed from the site. Now, there's a new owner to the site, which purchased it August 26, 2014, and he is in negotiation to obtain licensing from BMI at the moment. If you have a specific DMCA request -- please do not hesitate to contact me via the contact button on top. I will do my very best to keep this site fully legal.

Get our toolbar!