Your One-Stop Source For
Music Lyrics
Bass and Guitar Tabs
and More...
Music Lyrics Bass and Guitar Tabs

 

New Found Glory

The Tabs Are Below

Learn To Read Tab
Chords Handbook
Corrections & Additions
Get Official Tab
New Found Glory tabs @ 911Tabs

TELL TALE HEART - A New Found Glory

-------------------------------------------------------------------------------

 

By: Anthony Imburgia (antz001@yahoo.com)

 

pm

Intro: Guitars 1 and 2 .............

e|---------------------------------------------------------------------------|

B|---------------------------------------------------------------------------|

G|---------------------------------------------------------------------------|

D|-2---2-2-2-2---2-2-2-2---2-2-2-2--2222222222222----------------------------|

A|-0---0-0-0-0---0-0-0-0---0-0-0-0--0000000000000----------------------------|

E|---------------------------------------------------------------------------|

 

Guitars 1 and 2

e|---------------------------------------------------------------------------|

B|---------------------------------------------------------------------------|

G|---------------------------------------------------------------------------|

D|---------------------------------------------------------------------------|

A|--------------------------4h55555h7777777p55555-4--------------------------|

E|-4h55555h7777777p55555-4---------------------------------------------------|

 

When drums kick in, both guitars

e|---------------------------------------------------------------------------|

B|---------------------------------------------------------------------------|

G|---------------------------------------------------------------------------|

D|---------------------------------------------------------------------------|

A|---------------------------------4h5-5-4h5-5-4h5-5-5555-777-555------------|

E|-4h5-5-4h5-5-4h5-5-5555-777-555--------------------------------------------|

 

Guitar 2 drops out of riff above, and plays this Let ring

e|-----------------------------------------------|----------------------------|

B|-3-2-0-3-2-0-3-2-0-3-2-0---0-------------------|----------------------------|

G|-------------------------2---2-----------------|----------------------------|

D|-----------------------------------------------|-------------2--------------|

A|-----------------------------------------------|-------------2--------------|

E|-----------------------------------------------|-------------0--------------|

 

Guitar 2: Plays Main Riff over fills by Guitar 1, bass and drums

e|---------------------------------------------------------------------------|

B|---------------------------------------------------------------------------|

G|---------------------------------------------------------------------------|

D|-----------------------------777777-7--------------------------------------|

A|-77777-7-66-6-77-7-22-222-2--555555-5--------------------------------------|

E|-55555-5-44-4-55-5-00-000-0------------------------------------------------|

 

Guitar 1: Don't Tell Me.... (Guitar 1 joins 2 in main riff)

e|------------|----|----------------------------|

B|------------|----|----------------------------|

G|------------|----|----------------------------|

D|---7-6-4-2--|----|-7-7-6-4--------------------|

A|---5-4-2-0--|-2--|-5-5-4-2--------------------|

E|------------|-0--|----------------------------|

 

Tell Tale Heart again! Words like these won't win!

e|---------------------------------------------------------------------------|

B|---------------------------------------------------------------------------|

G|---------------------------------------------------------------------------|

D|-22-2-44-4-7-7-----22-2-44-4-7-7-7-7-6-4-----------------------------------|

A|-00-0-22-2-5-5-----00-0-22-2-5-5-5-5-4-2-----------------------------------|

E|---------------------------------------------------------------------------|

 

You Would Come Over to Talk... (Main Riff, palm muted)

 

Fill Chorus: (Stay...right here right by me Staaaaaay!)

e|------|---------------------------------------------------------------------|

B|------|---------------------------------------------------------------------|

G|------|---------------------------------------------------------------------|

D|------|---------------------77777777777777----------------------------------|

A|-0h2--|--7-77777777777777---555555555555555---------------------------------|

E|------|--5-55555555555555---------------------------------------------------|

 

 

Return to my New Found Glory tabs page

The Tablature is Copyright its respective owners.

Sign Up For My Newsletter
Subscribe | Unsubscribe

Site Map | Disclaimer | Privacy Policy | Media Kit | Submissions/Corrections

Website © 2000-2014 mattsmusicpage.com. All rights reserved.

Legal & DMCA: Matt's Music Page has been providing lyrics and tabs in a legal way, paying royalties each year to a few organizations. Then, all lyrics and tabs were removed from the site. Now, there's a new owner to the site, which purchased it August 26, 2014, and he is in negotiation to obtain licensing from BMI at the moment. If you have a specific DMCA request -- please do not hesitate to contact me via the contact button on top. I will do my very best to keep this site fully legal.

Get our toolbar!