Your One-Stop Source For
Music Lyrics
Bass and Guitar Tabs
and More...
>Music Lyrics Bass and Guitar Tabs

 

New Found Glory

The Tabs Are Below

Learn To Read Tab
Chords Handbook
Corrections & Additions
Get Official Tab
New Found Glory tabs @ 911Tabs

SO MANY WAYS - New Found Glory

-------------------------------------------------------------------------------

 

By:Jesse Contreras

kirchart1@yahoo.com

please send corrections and feed back to me

 

This song is the bonus song only printed on certain copys of nfg's new album

 

intro/verse, figure out the picking yourself, i just have the notes that are played

e|---------------------------------------------------------------------------|

B|---------------------------------------------------------------------------|

G|---------------------------------------------------------------------------|

D|-----7----------7----------------------------------------------------------|

A|-5-5-5--5-5-5-5-5-----9---------9------------------------------------------|

E|------------------7-7-7-7-7-7-7-7------------------------------------------|

 

2nd guitar intro and verse,listen to song to hear when 2nd guitar comes in

e|---------------------------------------------------------------------------|

B|---------------------------------------------------------------------------|

G|--9--7---------------------------------------------------------------------|

D|--x--x---------------------------------------------------------------------|

A|--7--5---------------------------------------------------------------------|

E|---------------------------------------------------------------------------|

 

1st guitar chorus, here's the chords in the order played, you figure the rythm out

e|---------------------------------------------------------------------------|

B|---------------------------------------------------------------------------|

G|---------------------------------------------------------------------------|

D|--7------------------------------------------------------------------------|

A|--5--9--5--7---------------------------------------------------------------|

E|-----7--3--5---------------------------------------------------------------|

PM

 

2nd guitar chorus, here's chords in the order played, you figure the rythm out

e|---------------------------------------------------------------------------|

B|---------------------------------------------------------------------------|

G|-7--9-11--12-11--9--7------------------------------------------------------|

D|-x--x--x---x--x--x--x------------------------------------------------------|

A|-5--7--9--10--9--7--5------------------------------------------------------|

E|---------------------------------------------------------------------------|

PM

 

1st guitar pre chorus

e|---------------------------------------------------------------------------|

B|---------------------------------------------------------------------------|

G|---------------------------------------------------------------------------|

D|--7------------------------------------------------------------------------|

A|--5--9--11-12--------------------------------------------------------------|

E|-----7--9--10--------------------------------------------------------------|

 

2nd guitar pre chorus, listen to song to hear when you come in

e|---------------------------------------------------------------------------|

B|---------------------------------------------------------------------------|

G|-11--12--------------------------------------------------------------------|

D|--x---x--------8-9---------------------------------------------------------|

A|--9--10---9-10-------------------------------------------------------------|

E|---------------------------------------------------------------------------|

 

"She's built, and torn down", all chords in this part are palm muted

e|---------------------------------------------------------------------------|

B|---------------------------------------------------------------------------|

G|---------------------------------------------------------------------------|

D|--7------------------------------------------------------------------------|

A|--5--9--5--7--4h5h4h4h5----------------------------------------------------|

E|-----7--3--5---------------------------------------------------------------|

 

2nd guitar chords solo (played a couple times)

e|---------------------------------------------------------------------------|

B|---------------------------------------------------------------------------|

G|-11--9--12-----------------------------------------------------------------|

D|--x--x---x-----------------------------------------------------------------|

A|--9--7--10-----------------------------------------------------------------|

E|---------------------------------------------------------------------------|

 

1st guitar solo that comes after the second guitar's solo(i'm not sure about this)

e|---------------------------------------------------------------------------|

B|---------------------------------------------------------------------------|

G|---------------------------------------------------7-----7-----7-----------|

D|-12-12-12-12-12-11-11-11-11-12-12-12-9-9-9-99--5h7---5h7---5h7-------------|

A|---------------------------------------------------------------------------|

E|---------------------------------------------------------------------------|

 

D--7--

A--5--

after that just repeat the chorus and end on E-----

 

Return to my New Found Glory tabs page

The Tablature is Copyright its respective owners.

Sign Up For My Newsletter
Subscribe | Unsubscribe

Site Map | Disclaimer | Privacy Policy | Media Kit | Submissions/Corrections

Website © 2000-2014 mattsmusicpage.com. All rights reserved.

Legal & DMCA: Matt's Music Page has been providing lyrics and tabs in a legal way, paying royalties each year to a few organizations. Then, all lyrics and tabs were removed from the site. Now, there's a new owner to the site, which purchased it August 26, 2014, and he is in negotiation to obtain licensing from BMI at the moment. If you have a specific DMCA request -- please do not hesitate to contact me via the contact button on top. I will do my very best to keep this site fully legal.

Get our toolbar!

 

Rolling Stones, 2014, Electric Guitar Musical Ornaments, Complete Set, New
$24.01
Rolling Stones, 2014, Electric Guitar Musical Ornaments, Complete Set, New picture


ROLLING STONES 8" GUITAR MUSICAL ORNAMENT, PLAYS "ruby tuesday " MORE HOT ROCKS
$12.99
ROLLING STONES 8


ROLLING STONES 8" GUITAR MUSICAL ORNAMENT, PLAYS "shes a rainbow MORE HOT ROCKS
$12.99
ROLLING STONES 8


Mint The Rolling Stones in the studio SHM-CD x 14 Box Set Japan Limited
$590.0
Mint The Rolling Stones in the studio SHM-CD x 14 Box Set Japan Limited picture


Keith Richards 8 NEW 1 inch pins buttons keef rolling stones
$3.99
Keith Richards 8 NEW 1 inch pins buttons keef rolling stones picture