Your One-Stop Source For
Music Lyrics
Bass and Guitar Tabs
and More...
Music Lyrics Bass and Guitar Tabs

 

New Found Glory

The Tabs Are Below

Learn To Read Tab
Chords Handbook
Corrections & Additions
Get Official Tab
New Found Glory tabs @ 911Tabs

New Found Glory - So Happy Together

-----------------------------------------------------------------

 

Tabbed By: FenderLetchy (Daniel Letch)

 

Song by New Found Glory called So Happy Together. Pretty nice song

and very easy to play. So easy my dog could play it.

 

Dunno if its right, but it sounds right to me.

 

INTRO

 

E|-------------------------------------|

B|-------------------------------------|

G|----14--13--11------14--13--11-------|

D|----14--13--11-x2---14--13--11-x2----|

A|-------------------------------------|

E|-------------------------------------|

 

 

VERSE

 

(all palm muted except last chord)

E|--------------------------------------|

B|--------------------------------------|

G|--11------9------7--------------------|

D|--11-x16--9-x16--7-x16--11-----11-----| x2

A|---9------7------5------11-x8--11-x8--|

E|-------------------------9------9-----|

PM.............................

 

 

CHORUS

 

E|------------------------------|------------------------------|

B|------------------------------|------------------------------|

G|--11------------11-----14-----|--11------------11-----14-----|

D|--11-x8--11-----11-x8--14-x8--|--11-x8--11-----11-x8--14-x8--|

A|---9-----11-x8---9-----12-----|---9-----11-x8---9-----12-----|

E|----------9-------------------|----------9-------------------|

 

 

VERSE

 

(all palm muted except last chord)

E|--------------------------------------|

B|--------------------------------------|

G|--11------9------7--------------------|

D|--11-x16--9-x16--7-x16--11-----11-----|

A|---9------7------5------11-x8--11-x8--|

E|-------------------------9------9-----|

PM.............................

 

 

CHORUS

 

E|------------------------------|------------------------------|

B|------------------------------|------------------------------|

G|--11------------11-----14-----|--11------------11-----14-----|

D|--11-x8--11-----11-x8--14-x8--|--11-x8--11-----11-x8--14-x8--|

A|---9-----11-x8---9-----12-----|---9-----11-x8---9-----12-----|

E|----------9-------------------|----------9-------------------|

 

 

VERSE

 

(all palm muted except last chord)

E|--------------------------------------|

B|--------------------------------------|

G|--11------9------7--------------------|

D|--11-x16--9-x16--7-x16--11-----11-----|

A|---9------7------5------11-x8--11-x8--|

E|-------------------------9------9-----|

PM.............................

 

 

CHORUS

 

E|------------------------------|-------------------------------|

B|------------------------------|-------------------------------|

G|--11------------11-----14-----|--11------------11-------------|

D|--11-x8--11-----11-x8--14-x8--|--11-x8--11-----11-x8--11------|

A|---9-----11-x8---9-----12-----|---9-----11-x8---9-----11-x16--|

E|----------9-------------------|----------9-------------9------|

 

 

VERSE

 

(all palm muted)

E|------------------------|

B|------------------------|

G|--11------9------7------|

D|--11-x16--9-x16--7-x16--|

A|---9------7------5------|

E|------------------------|

PM......................

 

 

FINISH

 

E|----------------| |-----------------|

B|----------------| |-----------------|

G|---------11-----| |---------11--11--|

D|--11-----11-x8--| x7 |--11-----11--11--|

A|--11-x8---9-----| |--11-x8---9---9--|

E|---9------------| |---9-------------|

 

Thats all.

 

 

Return to my New Found Glory tabs page

The Tablature is Copyright its respective owners.

Sign Up For My Newsletter
Subscribe | Unsubscribe

Site Map | Disclaimer | Privacy Policy | Media Kit | Submissions/Corrections

Website © 2000-2014 mattsmusicpage.com. All rights reserved.

Legal & DMCA: Matt's Music Page has been providing lyrics and tabs in a legal way, paying royalties each year to a few organizations. Then, all lyrics and tabs were removed from the site. Now, there's a new owner to the site, which purchased it August 26, 2014, and he is in negotiation to obtain licensing from BMI at the moment. If you have a specific DMCA request -- please do not hesitate to contact me via the contact button on top. I will do my very best to keep this site fully legal.

Get our toolbar!

 

1939 LYRIC THEATRE New York PHOTO
$5.83
1939 LYRIC THEATRE New York PHOTO picture


Star Spangled Banner or Marines Hymn lyrics signed by WWII Charles W. Lindberg
$10.0
Star Spangled Banner or Marines Hymn lyrics signed by WWII Charles W. Lindberg picture


OLD LARGE HISTORIC PHOTO OF THE LYRIC THEATRE, SYDNEY c1930s, WAR BONDS BOOTH
$7.42
OLD LARGE HISTORIC PHOTO OF THE LYRIC THEATRE, SYDNEY c1930s, WAR BONDS BOOTH picture


SONG OF REVOLUTION CARD SET WITH 13 MOST FAVORED COMMUNIST SONGS LYRICS + NOTES
$24.99
SONG OF REVOLUTION CARD SET WITH 13 MOST FAVORED COMMUNIST SONGS LYRICS + NOTES picture


OLD LARGE HISTORIC PHOTO OF THE LYRIC THEATRE, SYDNEY c1930s, WAR LOANS BOOTH
$7.42
OLD LARGE HISTORIC PHOTO OF THE LYRIC THEATRE, SYDNEY c1930s, WAR LOANS BOOTH picture