Your One-Stop Source For
Music Lyrics
Bass and Guitar Tabs
and More...
>Music Lyrics Bass and Guitar Tabs

 

New Found Glory

The Tabs Are Below

Learn To Read Tab
Chords Handbook
Corrections & Additions
Get Official Tab
New Found Glory tabs @ 911Tabs

Intro:

e|--------------------------------------------------------------------|

B|--------------------------------------------------------------------|

G|------7-------------------------------------------------------------|

D|--5---5---9---10---9------------------------------------------------|

A|--5---5---9---10---9------------------------------------------------|

E|--3-------7----8---7------------------------------------------------|

 

"staring at my shadow"

e|--------------------------------------------------------------------|

B|--------------------------------------------------------------------|

G|------7-------------------------------------------------------------|

D|--5---5---9---10---9------------------------------------------------|

A|--5---5---9---10---9------------------------------------------------|

E|--3-------7----8---7------------------------------------------------|

 

"intentions of the past"

e|--------------------------------------------------------------------|

B|--------------------------------------------------------------------|

G|------7-------------------------------------------------------------|

D|--5---5---9---10---9------------------------------------------------|

A|--5---5---9---10---9------------------------------------------------|

E|--3-------7----8---7------------------------------------------------|

 

 

Intro: back to this solid w/ singing "I try to push..."

e|--------------------------------------------------------------------|

B|--------------------------------------------------------------------|

G|------7-------------------------------------------------------------|

D|--5---5---9---10---9------------------------------------------------|

A|--5---5---9---10---9------------------------------------------------|

E|--3-------7----8---7------------------------------------------------|

 

 

not sure of this but this is what the tabber sent me

e|--------------------------------------------------------------------|

B|--------------------------------------------------------------------|

G|--------7----------5------------------------------------------------|

D|---5----7-----7----5------------------------------------------------|

A|---5----5-----7----3------------------------------------------------|

E|---3----------5-----------------------------------------------------|

 

 

"i try, i try"

e|--------------------------|

B|--------------------------|

G|-------5------------------|

D|-5-----5------------------|

A|-5-----3------------------|

E|-3------------------------|

 

 

Return to my New Found Glory tabs page

The Tablature is Copyright its respective owners.

Sign Up For My Newsletter
Subscribe | Unsubscribe

Site Map | Disclaimer | Privacy Policy | Media Kit | Submissions/Corrections

Website © 2000-2014 mattsmusicpage.com. All rights reserved.

Legal & DMCA: Matt's Music Page has been providing lyrics and tabs in a legal way, paying royalties each year to a few organizations. Then, all lyrics and tabs were removed from the site. Now, there's a new owner to the site, which purchased it August 26, 2014, and he is in negotiation to obtain licensing from BMI at the moment. If you have a specific DMCA request -- please do not hesitate to contact me via the contact button on top. I will do my very best to keep this site fully legal.

Get our toolbar!

 

Hard Rock Las Vegas Lucky Penny Guitar Key Chain
$0.99
Hard Rock Las Vegas Lucky Penny Guitar Key Chain picture


Miniature GUITAR CELLO VIOLIN Blue Glass Bottle WHEATON REPRODUCTION TAIWAN 3"
$3.0
Miniature GUITAR CELLO VIOLIN Blue Glass Bottle WHEATON REPRODUCTION TAIWAN 3


Vintage Def Leppard Guitar Hat Lapel Pinback #12526
$19.99
Vintage Def Leppard Guitar Hat Lapel Pinback #12526 picture


FREE Music Note Treble Clef Keyring Metal Keychain Guitar Novelty Keyfobs Gift
$0.01
FREE Music Note Treble Clef Keyring Metal Keychain Guitar Novelty Keyfobs Gift picture


ZIPPO LIGHTER GUITAR STINGS USED GOOD SHAPE
$3.99
ZIPPO LIGHTER  GUITAR STINGS USED GOOD SHAPE picture