Your One-Stop Source For
Music Lyrics
Bass and Guitar Tabs
and More...
>Music Lyrics Bass and Guitar Tabs

 

New Found Glory

The Tabs Are Below

Learn To Read Tab
Chords Handbook
Corrections & Additions
Get Official Tab
New Found Glory tabs @ 911Tabs

-------------NEW FOUND GLORY-------------

SONG: SCRAPED KNEES

ALBUM: ITS ALL ABOUT A GIRL

 

STANDRD TUNING

 

RIFF 1/ INTRO

e-----------------------------------------------------

B-----------------------------------------------------

G--77------77-----------------------------------------

D--77------77-----------------------------------------

A--55------55-----------------------------------------

E-----------------------------------------------------

 

 

RIFF 2

e-----------------------------------------------------

B-----------------------------------------------------

G-777-----444-----777-----444-------------------------

D-777-555-444-777-777-555-444-777---------------------

A-555-555-222-777-555-555-222-777---------------------

E-----333-----555-----333-----555---------------------

 

 

e-----------------------------------------------------

B-----------------------------------------------------

G-7-7-7--9-9-9--11-11-11--9-9-9-----------------------

D-X-X-X--X-X-X--X--X--X---X-X-X-----------------------

A-5-5-5--7-7-7--9--9--9---7-7-7-----------------------

E-----------------------------------------------------

 

 

e-----------------------------------------------------

B-----------------------------------------------------

G-777-----444-----------------------------------------

D-777-555-444-777-------------------------------------

A-555-555-222-777-------------------------------------

E-----333-----555-------------------------------------

 

 

RIFF 3 P.M. X4

e-----------------------------------------------------

B-----------------------------------------------------

G-777-----444-----------------------------------------

D-777-555-444-777-------------------------------------

A-555-555-222-777-------------------------------------

E-----333-----555-------------------------------------

 

RIFF 2

 

RIFF 4

e-----------------------------------------------------

B-----------------------------------------------------

G--------------777-----222----------------------------

D-5555-7777777-777-555-222-777------------------------

A-5555-7777777-555-555-444-777------------------------

E-3333-5555555-----333-----555------------------------

 

e-----------------------------------------------------

B-----------------------------------------------------

G------7777------77-55-44-22--------------------------

D-5555-7777-7777-77-55-44-22-5555-777777--------------

A-5555-5555-7777-55-33-22-00-5555-777777--------------

E-3333------5555-------------3333-555555--------------

 

e-----------------------------------------------------

B-----------------------------------------------------

G-777-----222-----------------------------------------

D-777-555-222-777-55555-7-----------------------------

A-555-555-444-777-55555-7-----------------------------

E-----333-----555-33333-5-----------------------------

 

RIFF 1

 

RIFF 5 X2

e-----------------------------------------------------

B-----------------------------------------------------

G-7-7-7--12-12-12--11-11--14--9-9--14-----------------

D-7-7-7--12-12-12--11-11--14--9-9--14-----------------

A-5-5-5--10-10-10--9--9---12--7-7--12-----------------

E-----------------------------------------------------

 

 

RIFF 6

e-XXX-------------------------------------------------

B-XXX-------------------------------------------------

G-XXX-777-----222-------------777-----222-------------

D-XXX-777-555-222-777-4h5-4h5-777-555-222-777---------

A-XXX-555-555-444-777---------555-555-444-777---------

E-XXX-----333-----555-------------333-----555---------

\.....p.m...../ \.....p.m...../

 

e-----------------------------------------------------

B-----------------------------------------------------

G-777-----444-----------------------------------------

D-777-555-444-777-4h5-4h5-4h5-4h5-4h5-4h5-4h5-4h5-----

A-555-555-222-777-------------------------------------

E-----333-----555-------------------------------------

\......P.M...../

 

P.M

e-----------------------------------------------------

B-----------------------------------------------------

G-777-----444-----777-----444-------------------------

D-777-555-444-777-777-555-444-777---------------------

A-555-555-222-777-555-555-222-777---------------------

E-----333-----555-----333-----555---------------------

 

RIFF 7

e-----------------------------------------------------

B-----------------------------------------------------

G-----------------------------------------------------

D-4h5-4h5-4h5-4h5-4h5-4h5-4h5-4h5-4h5-4h5-4h5-4h5-4h5-

A-----------------------------------------------------

E-----------------------------------------------------

 

 

RIFF 8 X4

e-----------------------------------------------------

B-----------------------------------------------------

G-7-7-7--12-12-12--11-11-11--9-9-9--------------------

D-X-X-X--XX-XX-XX--X--X--X---X-X-X--------------------

A-5-5-5--10-10-10--9--9--9---7-7-7--------------------

E-----------------------------------------------------

 

 

ORDER:

RIFF 1

RIFF 2

RIFF 3 X4

RIFF 2

RIFF 4

RIFF 1

RIFF 5 X2

RIFF 6

RIFF 7 X4

RIFF 2

RIFF 4

 

 

THIS TAB IS 100% CORRECT

 

Return to my New Found Glory tabs page

The Tablature is Copyright its respective owners.

Sign Up For My Newsletter
Subscribe | Unsubscribe

Site Map | Disclaimer | Privacy Policy | Media Kit | Submissions/Corrections

Website © 2000-2014 mattsmusicpage.com. All rights reserved.

Legal & DMCA: Matt's Music Page has been providing lyrics and tabs in a legal way, paying royalties each year to a few organizations. Then, all lyrics and tabs were removed from the site. Now, there's a new owner to the site, which purchased it August 26, 2014, and he is in negotiation to obtain licensing from BMI at the moment. If you have a specific DMCA request -- please do not hesitate to contact me via the contact button on top. I will do my very best to keep this site fully legal.

Get our toolbar!

 

Vintage Bols Ballerina Liqueur Bottle Music Box Dancer Works Empty Collectible
$24.95
Vintage Bols Ballerina Liqueur Bottle Music Box Dancer Works Empty Collectible picture


Vintage Chinese White Label 78rpm Record Till I Waltz Again With You Estate Find
$8.99
Vintage Chinese White Label 78rpm Record Till I Waltz Again With You Estate Find picture


Vintage Ceramic Music Box HIMARK "SEND IN THE CLOWNS" Turning Musical Figurine
$14.95
Vintage Ceramic Music Box HIMARK


Vintage 1980 Seymour Mann Bisque Porcelain Siamese Cats Music Box Japan
$9.99
Vintage 1980 Seymour Mann Bisque Porcelain Siamese Cats Music Box Japan picture


Vintage Valentine Footed Heart Shape Wind up Toyo Music Box w/ Tune Feelings
$24.99
 Vintage Valentine Footed Heart Shape Wind up Toyo Music Box w/ Tune Feelings picture