Your One-Stop Source For
Music Lyrics
Bass and Guitar Tabs
and More...
>Music Lyrics Bass and Guitar Tabs

 

New Found Glory

The Tabs Are Below

Learn To Read Tab
Chords Handbook
Corrections & Additions
Get Official Tab
New Found Glory tabs @ 911Tabs

band= new found glory

Tab= over the head below the knees

tabbed By Dean

This tab goes as it reads, should be in place everything should be sweet, feel free to move ***

around and fine tune it if need be but should be fine. words are there to show where u should be. personally

one of my favs to play on the album.

 

drop d tuning

 

Intro= x2

e|---------------------------------------------------------------------------|

B|---------------------------------------------------------------------------|

G|---------------------------------------------------------------------------|

D|-555555-555555-111111-555555-111111-555555-111111-555555-111111------------|

A|-555555-555555-111111-555555-111111-555555-111111-555555-111111------------|

D|--------555555-111111-555555-111111-555555-111111-555555-111111-0-1-0-1-0--|

pm ****** ****** ****** ****** ****** ****** ****** ******

you must not have a heart.........

 

intro 2a= 3x intro 2b=1 x

e|----------------------------------|---------------------------------|

B|----------------------------------|---------------------------------|

G|-12-12-12--8/7-7-7--8-8-8--3/5-5-5|12-12-12-12--8--7--5--3-3-3-3----|

D|-12-12-12--8/7-7-7--8-8-8--3/5-5-5|12-12-12-12--8--7--5--3-3-3-3----|

A|-10-10-10--6/5-5-5--6-6-6--1/3-3-3|10-10-10-10--6--5--3--1-1-1-1----|

D|----------------------------------|---------------------------------|

 

Intro= x2

e|------------------------------------------------------------|-----------------|

B|------------------------------------------------------------|-----------------|

G|------------------------------------------------------------|-----------------|

D|----555555-111111-555555-111111-555555-111111-555555-111111-|-----------------|

A|----555555-111111-555555-111111-555555-111111-555555-111111-|-----------------|

D|----555555-111111-555555-111111-555555-111111-555555-111111-|--0-1-0-1-0------|

pm1st ****** ****** ****** ****** ****** ****** ****** ****** 2nd time only

2nd

you could fool anyone....

 

chorus- can someone please help me with the chorus

e|---------------------------------------------------------------------|

B|---------------------------------------------------------------------|

G|---------------------------------------------------------------------|

D|-------------------------------------------------------/8/7/5--------|

A|---------------------------------------------------------------------|

D|---------------------------------------------------------------------|

 

Intro= x2

e|-----------------------------------------------------------|------------------|

B|-----------------------------------------------------------|------------------|

G|-----------------------------------------------------------|------------------|

D|----555555-111111-555555-111111-555555-111111-555555-111111|------------------|

A|----555555-111111-555555-111111-555555-111111-555555-111111|------------------|

D|----555555-111111-555555-111111-555555-111111-555555-111111|---0-1-0-1-0------|

pm1st ****** ****** ****** ****** ****** ****** ****** ****** 2nd time only

2nd

you could ruin any mood.......

 

chorus- 2x can someone please help me with the chorus

e|---------------------------------------------------------------------|

B|---------------------------------------------------------------------|

G|---------------------------------------------------------------------|

D|-------------------------------------------------------/8/7/5--------|

A|---------------------------------------------------------------------|

D|---------------------------------------------------------------------|

 

bridge= 4x

|----------------------------------------------------------|-------------------------------------|

|----------------------------------------------------------|-------------------------------------|

|-8--7--5--3-3-3-3--2--3/-5-5-5-5-5-5--8-8-xx-8-8-xx-8-8-xx|-------------------------------------|

|-8--7--5--3-3-3-3--2--3/-5-5-5-5-5-5--8-8-xx-8-8-xx-8-8-xx|-----------------------------/8/7/5--|

|-6--5--3--1-1-1-1--0--1/-3-3-3-3-3-3--6-6-xx-6-6-xx-6-6-xx|-------------------------------------|

|----------------------------------------------------------|-0-1-0-1-0-1-0-1-0-1-0-1-0-----------|

4th time only

chorus- can someone please help me with the chorus

e|---------------------------------------------------------------------|

B|---------------------------------------------------------------------|

G|---------------------------------------------------------------------|

D|-------------------------------------------------------/8/7/5--------|

A|---------------------------------------------------------------------|

D|---------------------------------------------------------------------|

 

 

Return to my New Found Glory tabs page

The Tablature is Copyright its respective owners.

Sign Up For My Newsletter
Subscribe | Unsubscribe

Site Map | Disclaimer | Privacy Policy | Media Kit | Submissions/Corrections

Website © 2000-2014 mattsmusicpage.com. All rights reserved.

Legal & DMCA: Matt's Music Page has been providing lyrics and tabs in a legal way, paying royalties each year to a few organizations. Then, all lyrics and tabs were removed from the site. Now, there's a new owner to the site, which purchased it August 26, 2014, and he is in negotiation to obtain licensing from BMI at the moment. If you have a specific DMCA request -- please do not hesitate to contact me via the contact button on top. I will do my very best to keep this site fully legal.

Get our toolbar!

 

LAKOTA LEATHERS BUFFALO CRADLE BANJO STRAP SOFT black 2"
$45.0
LAKOTA LEATHERS BUFFALO CRADLE BANJO STRAP  SOFT black 2


LAKOTA LEATHERS BUFFALO Leather CRADLE Banjo strap SOFT 2" Chocolate
$45.0
LAKOTA LEATHERS BUFFALO Leather CRADLE Banjo strap SOFT 2


Green 20th Century Reproduction of a BANJO Flask ~ Clevenger Brothers ? Pontil
$9.99
Green 20th Century Reproduction of a BANJO Flask ~ Clevenger Brothers ? Pontil picture


Lakota Leathers Buffalo Leather CRADLE BANJO STRAP SOFT TOBACCO 2"
$45.0
Lakota Leathers Buffalo Leather CRADLE BANJO STRAP SOFT TOBACCO 2


Vintage Hummel Goebel Figurine #86 "Happiness" Girl w/ Banjo
$12.99
Vintage Hummel Goebel Figurine #86