Your One-Stop Source For
Music Lyrics
Bass and Guitar Tabs
and More...
>Music Lyrics Bass and Guitar Tabs

 

New Found Glory

The Tabs Are Below

Learn To Read Tab
Chords Handbook
Corrections & Additions
Get Official Tab
New Found Glory tabs @ 911Tabs

MY SOLUTION - New Found Glory

-------------------------------------------------------------------------------

 

By: Rafi Kurlansik

rudeskank6@hotmail.com

 

Regular Tuning.

 

\ - slide to

pm - Palm mute

p - pull off

h - hammer on

 

Intro Riff -

e|----------------------|

B|----------------------|

G|-------9-9\6\7-7------|

D|--7-7--9-9\6\7-7-4-5--|

A|--7-7--7-7\4\5-5-4-5--|

E|--5-5------------2-3--|

 

Verse -

e|--------------------------------------------|

B|--------------------------------------------|

G|--7-----------------------------------------|

D|--7--7--5----------------------5p4h5p4h5p4--|

A|--5--7--5------other-guitar-----------------|

E|-----5--3-----------------------------------|

pm

 

Prechorus -

e|---------------------------------------|

B|---------------------------------------|

G|----5-----5------------5---------------|

D|-3--5-5---5--3--5---3--5--5---7--5--3--|

A|-3--3-5---3--3--5---3--3--5---7--5--3--|

E|-1----3------1--3---1-----3---5--3--1--|

 

Chorus - Guitar 1

e|---------------------------|

B|---------8----------8-6-5--|

G|-5-5-5-5---5-5-5-5---------|

D|---------------------------|

A|---------------------------|

E|---------------------------|

 

Chorus - Guitar 2

e|-------|

B|-------|

G|-5-----|

D|-5--3--|

A|-3--3--|

E|----1--|

 

Final Chorus -

e|--7--8------7--8------7-8-----10-8-7-8---------------------------|

B|--------8---------8--------8--------------------8---------8-6-5--|

G|----------------------------------------5-5-5-5---5-5-5-5--------|

D|-----------------------------------------------------------------|

A|-----------------------------------------------------------------|

E|-----------------------------------------------------------------|

 

 

Return to my New Found Glory tabs page

The Tablature is Copyright its respective owners.

Sign Up For My Newsletter
Subscribe | Unsubscribe

Site Map | Disclaimer | Privacy Policy | Media Kit | Submissions/Corrections

Website © 2000-2014 mattsmusicpage.com. All rights reserved.

Legal & DMCA: Matt's Music Page has been providing lyrics and tabs in a legal way, paying royalties each year to a few organizations. Then, all lyrics and tabs were removed from the site. Now, there's a new owner to the site, which purchased it August 26, 2014, and he is in negotiation to obtain licensing from BMI at the moment. If you have a specific DMCA request -- please do not hesitate to contact me via the contact button on top. I will do my very best to keep this site fully legal.

Get our toolbar!

 

Hard Rock Las Vegas Lucky Penny Guitar Key Chain
$0.99
Hard Rock Las Vegas Lucky Penny Guitar Key Chain picture


Miniature GUITAR CELLO VIOLIN Blue Glass Bottle WHEATON REPRODUCTION TAIWAN 3"
$3.0
Miniature GUITAR CELLO VIOLIN Blue Glass Bottle WHEATON REPRODUCTION TAIWAN 3


Vintage Def Leppard Guitar Hat Lapel Pinback #12526
$19.99
Vintage Def Leppard Guitar Hat Lapel Pinback #12526 picture


FREE Music Note Treble Clef Keyring Metal Keychain Guitar Novelty Keyfobs Gift
$0.01
FREE Music Note Treble Clef Keyring Metal Keychain Guitar Novelty Keyfobs Gift picture


ZIPPO LIGHTER GUITAR STINGS USED GOOD SHAPE
$3.99
ZIPPO LIGHTER  GUITAR STINGS USED GOOD SHAPE picture