Your One-Stop Source For
Music Lyrics
Bass and Guitar Tabs
and More...
>Music Lyrics Bass and Guitar Tabs

 

New Found Glory

The Tabs Are Below

Learn To Read Tab
Chords Handbook
Corrections & Additions
Get Official Tab
New Found Glory tabs @ 911Tabs

THE GOODBYE SONG - A New Found Glory

-------------------------------------------------------------------------------

 

By:Kyle--(NewFoundGlory321@aol.com)

 

(intro): Piano

VERSE: "Last year was one of our better years..."

e|---------------------------------------------------------------------------|

B|---------------------------------------------------------------------------|

G|--9----------------9-9-9-9-9-11-9-8-9-8-----------------------------9--8---|

D|--9----7--9------------------------------------7--9------9-----------------|

A|--7----7--9------------------------------------7--9----7-7----7--9---------|

E|-------5--7------------------------------------5--7-----------5--7---------|

 

"In the bright of day..."

e|---------------------------------------------------------------------------|

B|---------------------------------------------------------------------------|

G|------------------------------------------------------------------------9--|

D|--2----4----9--------2----4----6----4--------2--4--9------2--4--6--4----x--|

A|--0----2----7--------0----2----4----2--------0--2--7------0--2--4--2----7--|

E|---------------------------------------------------------------------------|

 

"It's over now, you watched me as I turned around..."

e|---------------------------------------------------------------------------|

B|---------------------------------------------------------------------------|

G|---------------------------------------------------------------------------|

D|-----6-----2-----6--4--------9---6---2---6-4-------------------------------|

A|-----4-----0-----4--2--------7---4---0---4-2-------------------------------|

E|---------------------------------------------------------------------------|

 

Chorus: "I feel it's been such a long time..."

e|---------------------------------------------------------------------------|

B|---------------------------------------------------------------------------|

G|-------------------------------------------2---1--------2---1--------1-2---|

D|-------4----2----6--4---------4--------------------------------------------|

A|--2----2----0----4--2----2----2----0-----------0---------------------------|

E|--0----------------------0-------------------------------------------------|

 

"...It's hurting me from the inside..."

e|---------------------------------------------------------------------------|

B|---------------------------------------------------------------------------|

G|---------------------------------------------------------------------------|

D|--------------------------------------------------6--7--6--7-6-7-6----4----|

A|-------4----6----7--------------------------4------------------------------|

E|-------2----4----5---------------------------------------------------------|

 

Use the beginning parts of the verse for the next part of the song, but palm

mute them.

 

Thats the basic structure of the song, so just play around with it.

 

 

Return to my New Found Glory tabs page

The Tablature is Copyright its respective owners.

Sign Up For My Newsletter
Subscribe | Unsubscribe

Site Map | Disclaimer | Privacy Policy | Media Kit | Submissions/Corrections

Website © 2000-2014 mattsmusicpage.com. All rights reserved.

Legal & DMCA: Matt's Music Page has been providing lyrics and tabs in a legal way, paying royalties each year to a few organizations. Then, all lyrics and tabs were removed from the site. Now, there's a new owner to the site, which purchased it August 26, 2014, and he is in negotiation to obtain licensing from BMI at the moment. If you have a specific DMCA request -- please do not hesitate to contact me via the contact button on top. I will do my very best to keep this site fully legal.

Get our toolbar!

 

Vintage Peanuts Snoopy Playing Guitar Closionne Jewelry Aviva Pin Mint
$9.95
Vintage Peanuts Snoopy Playing Guitar Closionne Jewelry Aviva Pin Mint  picture


Peanuts Snoopy & Woodstock "Playing Guitar" Westland Mini Water Globe MIB
$14.95
Peanuts Snoopy & Woodstock


PINK CADILLAC CONVERTIBLE KING 1 MARDI GRAS NECKLACE BEAD GUITAR ELVIS A10
$4.5
PINK CADILLAC CONVERTIBLE KING 1 MARDI GRAS NECKLACE BEAD GUITAR ELVIS A10 picture


dressed up lady playing GUITAR making music vintage photo postcard Ca 1910's
$7.0
dressed up lady playing GUITAR making music vintage photo postcard Ca 1910's picture


Edwardian lady with GUITAR making music photo French postcard Ca 1910's
$4.0
Edwardian lady with GUITAR making music photo French postcard Ca 1910's picture