Your One-Stop Source For
Music Lyrics
Bass and Guitar Tabs
and More...
>Music Lyrics Bass and Guitar Tabs

 

New Found Glory

The Tabs Are Below

Learn To Read Tab
Chords Handbook
Corrections & Additions
Get Official Tab
New Found Glory tabs @ 911Tabs

New Found Glory-Eyesore(acoustic)*****

By-Ed

Enjoy the tab which is most likely to be wrong! NFG rulz!

------------------------------------------------------------------------------*

 

Intro and verse #1:x3

e|--------------------------------------------------|

B|--------------------------------------------------|

G|--------------------------------------------------|

D|--7777777---4444444----6666666------------222222--|

A|--7777777---4444444----6666666----6-4-----222222--|

E|--5555555---2222222----4444444------------000000--|

 

Pre:x2

e|--------------------------------------------------|

B|--------------------------------------------------|

G|--------------77777777---66666666-----------------|

D|--77777777----77777777---66666666-----22222222----|

A|--77777777----55555555---44444444-----22222222----|

E|--55555555----------------------------00000000----|

Chorus:x4

e|--------------------------------------------------|

B|--------------------------------------------------|

G|---------77------66666666--------44444444---------|

D|--77-----77------66666666--------44444444---------|

A|--77-----55------44444444--------22222222---------|

E|--55----------------------------------------------|

 

Verse #2:x2...note: play a little slower

e|--------------------------------------------------|

B|--------------------------------------------------|

G|--------------------------------------------------|

D|--7777777---4444444----6666666------------222222--|

A|--7777777---4444444----6666666----6-4-----222222--|

E|--5555555---2222222----4444444------------000000--|

 

Pre:x2

e|--------------------------------------------------|

B|--------------------------------------------------|

G|--------------77777777---66666666-----------------|

D|--77777777----77777777---66666666-----22222222----|

A|--77777777----55555555---44444444-----22222222----|

E|--55555555----------------------------00000000----|

 

Chorus:x4

e|--------------------------------------------------|

B|--------------------------------------------------|

G|---------77------66666666--------44444444---------|

D|--77-----77------66666666--------44444444---------|

A|--77-----55------44444444--------22222222---------|

E|--55----------------------------------------------|

 

Interlude:x2...note: hit each chord 1 time then hit it again hrder and then

play it same like in the verses!

e|--------------------------------------------------|

B|--------------------------------------------------|

G|--------------------------------------------------|

D|--7-777777---4-444444----6-666666---------2-22222-|

A|--7-777777---4-444444----6-666666---6-4---2-22222-|

E|--5-555555---2-222222----4-444444---------0-00000-|

 

Pre:x2

e|--------------------------------------------------|

B|--------------------------------------------------|

G|--------------77777777---66666666-----------------|

D|--77777777----77777777---66666666-----22222222----|

A|--77777777----55555555---44444444-----22222222----|

E|--55555555----------------------------00000000----|

 

Chorus:x4...note: that last not is a change, but that ands the song!

e|--------------------------------------------------|

B|--------------------------------------------------|

G|---------77------66666666-------------------------|

D|--77-----77------66666666--------22222222---------|

A|--77-----55------44444444--------22222222---------|

E|--55-----------------------------00000000---------|

 

Well...thats all..I hope it is good enough for you and you enjoy playing it

i know I do.

-Ed

 

 

Return to my New Found Glory tabs page

The Tablature is Copyright its respective owners.

Sign Up For My Newsletter
Subscribe | Unsubscribe

Site Map | Disclaimer | Privacy Policy | Media Kit | Submissions/Corrections

Website © 2000-2014 mattsmusicpage.com. All rights reserved.

Legal & DMCA: Matt's Music Page has been providing lyrics and tabs in a legal way, paying royalties each year to a few organizations. Then, all lyrics and tabs were removed from the site. Now, there's a new owner to the site, which purchased it August 26, 2014, and he is in negotiation to obtain licensing from BMI at the moment. If you have a specific DMCA request -- please do not hesitate to contact me via the contact button on top. I will do my very best to keep this site fully legal.

Get our toolbar!

 

B&W Photo S4167 Boy playing harmonica by piano
$3.98
B&W Photo S4167 Boy playing harmonica by piano picture


1948-1952 OCCUPIED JAPAN Musical Key Chain PEE WEE TOY HARMONICA off card nos
$19.99
1948-1952 OCCUPIED JAPAN Musical Key Chain PEE WEE TOY HARMONICA off card nos picture


Woody Woodpecker Kazoo and Harmonica
$12.5
Woody Woodpecker Kazoo and Harmonica picture


Woody Woodpecker Wind up Swimmer and Harmonica
$12.5
Woody Woodpecker Wind up Swimmer and Harmonica picture


Woody Woodpecker Kazoo and Harmonica
$5.0
Woody Woodpecker Kazoo and Harmonica picture