Your One-Stop Source For
Music Lyrics
Bass and Guitar Tabs
and More...
>Music Lyrics Bass and Guitar Tabs

 

New Found Glory

The Tabs Are Below

Learn To Read Tab
Chords Handbook
Corrections & Additions
Get Official Tab
New Found Glory tabs @ 911Tabs

Band: New Found Glory

Song: My Friends Over You

Tabber: Nick (hotdog_the_penguin@hotmail.com)

 

 

Intro

|1---2---3---4---|1---2---3---4---|1---2---3---4---|

C |x-x-x-x-x-x-x-x-|x-x-x-x-x-x-x-x-|x-x-x-x-x-x-x-x-|

S |----o-------o---|----o-------o--o|----o-------o---|

B |ooo----o-oo-----|ooo----o-oo-----|ooo----o-oo-----|

 

|1---2---3---4---|

C |x-x-x---------x-|

T |----------o--o--|

F |--------o----o--|

S |----o-----------|

B |ooo---o-------o-|

 

|1---2---3---4---|1---2---3---4---|1---2---3---4---|

C |x-x-------------|----------------|x---------------|

H |----x-x-x-x-x-x-|x-x-x-x-x-x-x-x-|--x-x-x-x-x-----|

F |----------------|----------------|------------o-o-|

S |----o-------o---|----o-------o---|------------o-o-|

B |ooo----o-oo-----|ooo----o-oo----o|-----o-o---o----|

|---Repeat x2---|

 

|1---2---3---4---|1---2---3---4---|1---2---3---4---|

C |x-x-------------|----------------|----------------|

H |----x-x-x-x-x-x-|x-x-x-o-x-x-x-x-|x-x-x-x-x-x-x-x-|

S |----o-------o---|----o-------o---|----o-------o---|

B |ooo----o-oo-----|ooo----o-oo-----|ooo----o-oo----o|

 

Figure #1

|1---2---3---4---|1---2---3---4---|1---2---3---4---|

R |----------------|xxxxxxxxxxxxxxxx|xxxxxxxxxxxxxxxx|

C |x---------------|----------------|----------------|

H |--x-x-x-x-x-----|----------------|----------------|

F |------------o-o-|----------------|------------o-o-|

S |------------o-o-|o-o-o-o-o-o-o-o-|o-o-o-o-o-o-o-o-|

B |-----o-o---o----|---o-o-----o-o--|---o-o-----o----|

 

Figure #2

|1---2---3---4---|

C |x---------------| These are 32nd notes on the snare

H |--o-o-o-o-o-----| I just coulndn't fit them on the

F |------------o-o-| Normal Bar line so i stretched it

S |--o---o---o-o-o-| The tempo's still the same though.

B |oo-oo--oo--o----|

 

|1---2---3---4---|1---2---3---4---|1---2---3---4---|1---2---3-------4-------|

C |x-x-x-x-x-x-x-x-|x-x-x-x-x-x-x-x-|x-x-x-x-x-x-x-x-|x-x-x-x-----------------|

S |--o---o---o---o-|--o---o---o---oo|--o-------------|--------OoooOoooOoooOooo|

B |oo-oo--oo--oo--o|o--oo--oo--oo--o|o--oo--oo--oo--o|o--oo--oo---------------|

 

|1---2---3---4---|1---2---3---4---|1---2---3---4---|1---2---3---4---|

C |x-x-x-x-x-x-x-x-|x-x-x-x-x-x-x-x-|x-x-x-x-x-x-x-x-|x-------x-------|

H |----------------|----------------|----------------|--o-o-o---------|

F |----------------|----------------|----------------|--------------o-|

S |--o---o---o---o-|--o---o---o---oo|--o---o---o---o-|--o-o-o-----f---|

B |oo-oo--oo--oo--o|o--oo--oo--oo--o|o--oo--oo--oo---|o--o-o-oo-----o-|

 

|1---2---3---4---|1---2---3---4---|1---2---3---4---|1---2---3---4---|

C |x-x-x-x-x-x-x-x-|x-x-x-x-x-x-x-x-|x-x-x-x-x-x-x-x-|x-x-x-x-x-x-x-x-|

t |----------------|-------------o--|----------------|----------------|

F |----------------|--------------o-|----------------|----------------|

S |----o-------o---|----o-------o--o|----o-------o---|----o-------o---|

B |ooo----o-oo-----|ooo----o-oo-----|ooo----o-oo-----|ooo----o-oo-----|

 

|1---2---3---4---|

C |x-x-x-----x-----|

t |------o---------|

F |-------o-o------|

S |----o-oo--------|

B |ooo----o-oo-----|

 

|1---2---3---4---|1---2---3---4---|1---2---3---4---|

C |x-x-------------|----------------|----------------|

H |----x-x-x-x-x-x-|x-x-x-x-x-x-x-x-|x-x-x-o-x-x-x-x-|

S |----o-------o---|----o-------o---|----o-------o---|

B |ooo----o-oo-----|ooo----o-oo-----|ooo----o-oo----o|

 

|1---2---3---4---|1---2---3---4---|1---2---3---4---|1---2---3---4---|

C |x---------------|x-x-------------|----------------|----------------|

H |--x-x-x-x-x-----|----x-x-x-x-x-x-|x-o-x-x-x-x-x-o-|x-x-x-x-x-x-x-x-|

F |------------o-o-|----------------|----------------|----------------|

S |o-o-o-o-o-o-o-o-|----o-------o---|-o--o-------o---|----o-------o---|

B |-----o-o---o----|ooo----o-oo-----|ooo----o-oo-----|ooo----o-oo----o|

 

**REPEAT FIGURE #1**

 

|1---2---3---4-------|

C |x-------------------|

H |--o-o-o-o-o---------| (I stretched it out for the same reason as before)

F |------------o-------|

S |------------o---ooo-|

B |oo-oo--oo--o--------|

 

 

|1---2---3---4---|1---2---3---4---|1---2---3---4---|1---2---3-------4-------|

C |x-x-x-x-x-x-x-x-|x-x-x-x-x-x-x-x-|x-x-x-x-x-x-x-x-|x-x-x-x-----------------|

F |----------------|----------------|----------------|----------------OoooOooo|

S |--o---o---o---o-|--o---o---o---oo|--o---o---o---o-|--o---o-OoooOooo--------|

B |oo-oo--oo--oo--o|o--oo--oo--oo--o|o--oo--oo--oo--o|o--oo-------------------|

 

|1---2---3---4---|1---2---3---4---|1---2---3---4---|1---2---3---4---|

C |x-x-x-x-x-x-x-x-|x-x-x-x-x-x-x-x-|x-x-x-x-x-x-x-x-|x-------x-------|

H |----------------|----------------|----------------|--o-o-o---------|

S |--o---o---o---o-|--o---o---o---oo|--o---o---o---o-|----------------|

B |oo-oo--oo--oo--o|oo-oo--oo--oo--o|o--oo--oo--oo---|o--o-o-oo-------|

 

|1---2---3---4---|1---2---3---4---|1---2---3---4---|1---2---3---4---|

C |----------------|----------------|x---x---x---x---|x---x---x---x---|

F |----------------|------------o-o-|----------------|----------------|

S |----------------|------------o---|----o-------o---|----o-------o-oo|

B |o---------------|--------------o-|o-o---o---o---o-|o-o---o---o---o-|

 

|1---2---3---4---|1---2---3---4---|

C |x---x---x---x---|x---x---x---x---|

T |----------------|----------o-----|

F |----------------|--------------oo|

S |----o-------o---|----o-------o---|

B |o-o---o---o---o-|o-o---o---------|

 

|1---2---3---4---|1---2---3---4---|1---2---3---4---|

C |x---x-------x---|--x-x-----------|x-------x-------|

Ch|----------------|--------x-------|----------------|

H |--------o-------|o-----------o---|----o-----------|

F |----------------|----------------|------o---------|

S |--------o-------|o-----------o---|----o-----------|

B |o---o---o---o---|o-o-o---o---o---|o---o-o-o-------|

 

**3 BAR REST**

|1---2---3---4-------|1---2---3---4---|1---2---3---4---|1---2---3---4---|

C |x-------------------|x-x-x-x-x-x-x-x-|x-x-x-x-x-x-x-x-|x-x-x-x-x-x-x-x-|

H |--o-o-o----o--------|----------------|----------------|----------------|

F |--------o-o---------|----------------|----------------|----------------|

S |------o-o-o-OoooOooo|--o---o---o---o-|--o---o---o---oo|--o---o---o---o-|

B |oo-oo---------------|oo-oo--oo--oo--o|o--oo--oo--oo--o|o--oo--oo--oo--o|

 

|1---2---3-------4-------|

C |x-x-x-x-----------------|

F |----------------O-----oo|

S |--o---o-OoooOooo-oooOo--|

B |o--oo-------------------|

 

|1---2---3---4---|1---2---3---4---|1---2---3---4---|1---2---3-------4-------|

C |x-x-x-x-x-x-x-x-|x-x-x-x-x-x-x-x-|x-x-x-x-x-x-x-x-|x-----------------------|

H |----------------|----------------|----------------|--o-o-o-----------------|

F |----------------|----------------|----------------|-----------o---------ooo|

S |--o---o---o---o-|--o---o---o---oo|--o---o---o---o-|--o---o-Ooo-OoooOoooo---|

B |oo-oo--oo--oo--o|o--oo--oo--oo--o|o--oo--oo--oo--o|oo-o-o------------------|

 

|1---2---3---4---|1---2---3---4---|1---2---3---4---|1---2---3-------4-------|

C |x-x-x-x-x-x-x-x-|x-x-x-x-x-x-x-x-|x-x-x-x-x-x-x-x-|x-x-x-x-----------------|

S |--o---o---o---o-|--o---o---o---oo|--o---o---o---o-|--o---o-OoooOoooOoooOooo|

B |oo-oo--oo--oo--o|oo-oo--oo--oo--o|o--oo--oo--oo--o|o--oo-------------------|

 

|1---2---3---4---|1---2---3---4---|1---2---3---4---|1---2---3---4---|

C |x-x-x-x-x-x-x-x-|x-x-x-x-x-x-x-x-|x-x-x-x-x-x-x-x-|x---------------|

H |----------------|----------------|----------------|--o-o-o---------|

S |--o---o---o---o-|--o---o---o---oo|-o--o---o---o---|------------f---|

B |oo-oo--oo--oo--o|oo-oo--oo--oo--o|o-oo-oo--oo--oo-|o--o-o-oo----o-o|

 

|1---2---3---4---|1---2---3---4---|1---2---3---4---|1---2---3---4---|

C |x-x-x-x-x-x-x-x-|x-x-x-x-x-x-----|----x-x-x-x-x-x-|x-x-x---------x-|

t |----------------|----------------|o---------------|----------o--o--|

F |----------------|----------------|-oo-------------|--------o----o--|

S |----o-------o---|----o-------o-oo|----o-------o---|----o-----------|

B |ooo----o-oo-----|ooo----o-oo--o--|-------o-oo-----|ooo---o-------o-|

 

 

Return to my New Found Glory drum tabs page

The Tablature is Copyright its respective owners.

Sign Up For My Newsletter
Subscribe | Unsubscribe

Site Map | Disclaimer | Privacy Policy | Media Kit | Submissions/Corrections

Website © 2000-2014 mattsmusicpage.com. All rights reserved.

Legal & DMCA: Matt's Music Page has been providing lyrics and tabs in a legal way, paying royalties each year to a few organizations. Then, all lyrics and tabs were removed from the site. Now, there's a new owner to the site, which purchased it August 26, 2014, and he is in negotiation to obtain licensing from BMI at the moment. If you have a specific DMCA request -- please do not hesitate to contact me via the contact button on top. I will do my very best to keep this site fully legal.

Get our toolbar!

 

Chiang-ming Cheng Autographed Program Tremolo Harmonica Concert Player
$6.99
Chiang-ming Cheng Autographed Program Tremolo Harmonica Concert Player picture


1994 Press Photo Joe Troyan in Bashfville Harmonica
$20.0
1994 Press Photo Joe Troyan in Bashfville Harmonica picture


1992 Press Photo Dave Flack Portland Harmonica King
$22.0
1992 Press Photo Dave Flack Portland Harmonica King picture


Civil War dug iron heel plate relics button harmonica knife battle artifacts
$9.99
Civil War dug iron heel plate relics button harmonica knife battle artifacts picture


Harmonica Chop Cup (Aluminum) by Leo Smetsers - Trick - Magic Tricks
$151.95
Harmonica Chop Cup (Aluminum) by Leo Smetsers - Trick - Magic Tricks picture