Your One-Stop Source For
Music Lyrics
Bass and Guitar Tabs
and More...
Music Lyrics Bass and Guitar Tabs

 

New Found Glory

The Tabs Are Below

Learn To Read Tab
Chords Handbook
Corrections & Additions
Get Official Tab
New Found Glory tabs @ 911Tabs

CERTAIN - A New Found Glory

-------------------------------------------------------------------------------

 

By:Joel Cayley (Joelcayley@hotmail.com)

 

This is a pretty cool song by NFG. It is very old by the sound of it...Well i

mean very old for NFG. But anyway....this tab is right as far as i know. It

was a request by someone, and it seems alright.....If u wanna send me anything

about this, NFG, Millencolin(my fav), or anything, feel free to do so!...And i

threw the order in there 4 ya too!

 

x = Palm mute

/ = Slide

p = Pull off

h = Hammer

 

-VERSE-

Guitar 1:

e|---------------------------------------------------------------------------|

B|---------------------------------------------------------------------------|

G|-----------x-x-7-7--x-x-5-5--x-x-7-7------------x-x-7-7--x-x-5-5--x-x-7-7--|

D|--x-x-5-5--x-x-7-7--x-x-5-5--x-x-7-7---x-x-5-5--x-x-7-7--x-x-5-5--x-x-7-7--|

A|--x-x-5-5--x-x-5-5--x-x-3-3--x-x-5-5---x-x-5-5--x-x-5-5--x-x-3-3--x-x-5-5--|

E|--x-x-3-3------------------------------x-x-3-3-----------------------------|

 

e|---------------------------------------------------------------------------|

B|---------------------------------------------------------------------------|

G|-----------7-7-7-7--5-5-5-5--7-7-7-7------------7-7-7-7--5-5-5-5--7-7-7-7--|

D|--5-5-5-5--7-7-7-7--5-5-5-5--7-7-7-7---5-5-5-5--7-7-7-7--5-5-5-5--7-7-7-7--|

A|--5-5-5-5--5-5-5-5--3-3-3-3--5-5-5-5---5-5-5-5--5-5-5-5--3-3-3-3--5-5-5-5--|

E|--3-3-3-3------------------------------3-3-3-3-----------------------------|

 

Guitar 2: (starts on the above riff.)

e|---------------------------------------------------------------------------|

B|---------------------------------------------------------------------------|

G|----------12--11--9--7-------12--11--9--7----------------------------------|

D|---------------------------------------------------------------------------|

A|----------10--9---7--5-------10--9---7--5----------------------------------|

E|---------------------------------------------------------------------------|

 

-CHORUS 1-

 

Guitar 1:

e|---------------------------------------------------------------------------|

B|---------------------------------------------------------------------------|

G|-------------5--7-7-7-7-7-7-7-7--------------5--9-9-9-9-7-7-7-7------------|

D|----5-5-5-5--5--7-7-7-7-7-7-7-7-----5-5-5-5--5--9-9-9-9-7-7-7-7------------|

A|----5-5-5-5--3--5-5-5-5-5-5-5-5-----5-5-5-5--3--5-5-5-5-5-5-5-5------------|

E|----3-3-3-3-------------------------3-3-3-3--------------------------------|

 

Guitar 2: (comes in to the above riff, about where it is situated under it.)

e|---------------------------------------------------------------------------|

B|-----------------------7h8p7-----------------------------------------------|

G|-----------------------------9-7-------------------------------------------|

D|---------------------------------------------------------------------------|

A|---------------------------------------------------------------------------|

E|---------------------------------------------------------------------------|

 

Guitar 1:

e|---------------------------------------------------------------------------|

B|---------------------------------------------------------------------------|

G|-------------5--7-7-7-7-7-7-7-7-----x-5-5-5-5-5-5-5-5-5-5-5-5-5------------|

D|----5-5-5-5--5--7-7-7-7-7-7-7-7-----x-5-5-5-5-5-5-5-5-5-5-5-5-5------------|

A|----5-5-5-5--3--5-5-5-5-5-5-5-5-----x-3-3-3-3-3-3-3-3-3-3-3-3-3------------|

E|----3-3-3-3----------------------------------------------------------------|

 

Guitar 2: (comes in to the above riff, about where it is situated under it.)

e|-----------------------------------|---------------------------------------|

B|-----------------------7h8p7-------|----8-7-----------7--------------------|

G|-----------------------------9-7---|--------9-7-5-7-9---9-7----------------| goto start of

D|-----------------------------------|---------------------------------------| -CHORUS 1-

A|-----------------------------------|---------------------------------------|

E|-----------------------------------|---------------------------------------|

*Only played 2nd time around

 

Play -Verse- again....then

 

-CHORUS 2-

Guitar 1:

e|---------------------------------------------------------------------------|

B|---------------------------------------------------------------------------|

G|-------------7--5-5-5-5--9--7-7-7-7-7-7--5-5-5-5--7-7-7-7------------------| Play 4X

D|----5-5-5-5--7--5-5-5-5--9--7-7-7-7-7-7--5-5-5-5--7-7-7-7------------------| (ring the last

A|----5-5-5-5--5--3-3-3-3--7--5-5-5-5-5-5--3-3-3-3--5-5-5-5------------------| note on the

E|----3-3-3-3----------------------------------------------------------------| last round.)

 

Guitar 2:

e|---------------------------------------------------------------------------|

B|---------------------------------------7-7-7-8-8-8--8-8-8-7----------------|

G|------------------------------------------------------------7--------------| Play on

D|---------------------------------------------------------------------------| every second

A|---------------------------------------------------------------------------| round of 4x

E|---------------------------------------------------------------------------|

 

THEN

 

-BRIDGE-

Guitar 1:

e|---------------------------------------------------------------------------|

B|---------------------------------------------------------------------------|

G|--------7-----7-----7-----7--7--7-x-x-x-x-x-x-x-x--------------------------|

D|--------7-----7-----7-----7--7--7-x-x-x-x-x-x-x-x--------------------------|

A|--------5-----5-----5-----5--5--5-x-x-x-x-x-x-x-x--------------------------|

E|---------------------------------------------------------------------------|

 

Then play -CHORUS 1-

 

Then

 

-SOLO-

Guitar 2:

e|------------------------------------------------------------------------------------|

B|----8-8/10/8-------------------8/10/8-----------10----------------------------------|

G|--7----------11-9-9h11-11-9-7---------9h11-9h11----9h11p9-7-7-7h9p7-11p9-11p9-11p9--|

D|------------------------------------------------------------------------------------|

A|------------------------------------------------------------------------------------|

E|------------------------------------------------------------------------------------|

 

Then Play -CHORUS 2-

 

Then Play a slightly different sounding -VERSE- (without palm muting)

 

And Finally

 

-ENDING-

e|---------------------------------------------------------------------------|

B|---------------------------------------------------------------------------|

G|------------------------------------------------5--------------------------|

D|----5-x-x-x-x-x-x-x-x-x---5-x-x-x-x-x-x-x-x-x---5--------------------------|

A|----5-x-x-x-x-x-x-x-x-x---5-x-x-x-x-x-x-x-x-x---3--------------------------|

E|----3-x-x-x-x-x-x-x-x-x---3-x-x-x-x-x-x-x-x-x------------------------------|

 

By Joel Cayley - Joelcayley@hotmail.com

 

 

Return to my New Found Glory tabs page

The Tablature is Copyright its respective owners.

Sign Up For My Newsletter
Subscribe | Unsubscribe

Site Map | Disclaimer | Privacy Policy | Media Kit | Submissions/Corrections

Website © 2000-2014 mattsmusicpage.com. All rights reserved.

Legal & DMCA: Matt's Music Page has been providing lyrics and tabs in a legal way, paying royalties each year to a few organizations. Then, all lyrics and tabs were removed from the site. Now, there's a new owner to the site, which purchased it August 26, 2014, and he is in negotiation to obtain licensing from BMI at the moment. If you have a specific DMCA request -- please do not hesitate to contact me via the contact button on top. I will do my very best to keep this site fully legal.

Get our toolbar!