Your One-Stop Source For
Music Lyrics
Bass and Guitar Tabs
and More...
Music Lyrics Bass and Guitar Tabs

 

New Found Glory

The Tabs Are Below

Learn To Read Tab
Chords Handbook
Corrections & Additions
Get Official Tab
New Found Glory tabs @ 911Tabs

Song: Time After Time

Artist: New Found Glory

Album: Unknown

Tabbed By: Murray Pigdon (mikeherrera07@hotmail.com)

 

Intro x2

G|-------------------------|-|---------------------------------

D|-------------------------|-|---------------------------------

A|-------------------2-3>--|-|---------------------------------

E|--3>--0>-xx0-3-----------|-|-1>-3>-0>-1>-1>-3>-0>------------

 

second time through the intro let the last note ring (E)

 

Verse x2

G|---------------------------------|-|-------------------------------

D|---------------------------------|-|-------------------------------

A|--5-3>-5-3>-5-3>-5-77------------|-|--3>-5>-2>-3>--33-2------------

E|---------------------------------|-|--------------------3>---------

------------------

------------------

second time through the verse only play--3>-5>-2>-3>--3--

------------------

 

Chorus

G|---------------------------

D|---------------------------

A|-------------------2-3>----

E|--3>--0>-xx0-3-------------

 

Order:

Intro

Verse x2

Chorus x4

2nd part of intro x2

Verse

Chorus x4

 

Not sure if it's 100% right but you'll get the feel for the song after a while

 

 

 

Return to my New Found Glory bass tabs page

The Tablature is Copyright its respective owners.

Sign Up For My Newsletter
Subscribe | Unsubscribe

Site Map | Disclaimer | Privacy Policy | Media Kit | Submissions/Corrections

Website © 2000-2014 mattsmusicpage.com. All rights reserved.

Legal & DMCA: Matt's Music Page has been providing lyrics and tabs in a legal way, paying royalties each year to a few organizations. Then, all lyrics and tabs were removed from the site. Now, there's a new owner to the site, which purchased it August 26, 2014, and he is in negotiation to obtain licensing from BMI at the moment. If you have a specific DMCA request -- please do not hesitate to contact me via the contact button on top. I will do my very best to keep this site fully legal.

Get our toolbar!