Your One-Stop Source For
Music Lyrics
Bass and Guitar Tabs
and More...
>Music Lyrics Bass and Guitar Tabs

 

New Found Glory

The Tabs Are Below

Learn To Read Tab
Chords Handbook
Corrections & Additions
Get Official Tab
New Found Glory tabs @ 911Tabs

Song: This Disaster

Band: New Found Glory

Album: Catalyst (Track 3)

Bassist: Ian Grushka

Standard Tuning

 

(0:00)

G -------------------------------------------------------------

D -------------------------------------------------------------

A --2------2-------------------2---------2---------------------

E --------------3------3---3-----------------3----------3------

 

(0:06)

G -------------------------------------------------------------

D -------------------------------------------------------------

A --2---2--2-------------------2----2----2---------------------

E --------------3---3--3---3-----------------3-----3----3------

 

(0:12)

G ----------------------------------------------- G -------------------------------------------

D ----------------------------------------------- D -------------------------------------------

A --22----2--------------22----2----------------- X3 A --22----2------------22-----2--------------

E --------------33----3--------------33---33----- E -------------33----3-------------33---3----

 

(0:38)

G ----------------------------------------------------------

D -------------------------------------------55555555-------

A --5555555555555555--77777777------------------------------ X2

E ----------------------------------------------------------

 

(0:50)

G -------------------------------------------------------------

D -------------------------------------------------------------

A --2---2--2-------------------2----2----2--------------------- X2

E --------------3---3--3---3-----------------3-----3----3------

 

(1:03)

G ----------------------------------------------- G -------------------------------------------

D ----------------------------------------------- D -------------------------------------------

A --22----2--------------22----2----------------- X3 A --22----2------------22-----2--------------

E --------------33----3--------------33---33----- E -------------33----3-------------33---3----

 

(1:28)

G ----------------------------------------------------------

D -------------------------------------------55555555-------

A --5555555555555555--77777777------------------------------ X4

E ----------------------------------------------------------

 

(1:56)

G ----------------------------------------------- G ----------------------------------------------

D --------------------------4--5--2---7--5------- D ----------------------------------------------

A --2-------------------2------------------------ X3 A --2-------------------2--22----22-2------2----

E -----2-3--0--5--3------------------------------ E -----2-3--0--5--3-----------------------------

 

(2:23)

G ----------------------------------------------------------

D -------------------------------------------55555555-------

A --5555555555555555--77777777------------------------------ X6

E ----------------------------------------------------------

 

(3:00)

G -------------------------------------------------------------

D -------------------------------------------------------------

A --2------2-------------------2---------2---------------------

E --------------3------3---3-----------------3-----------------

 

Return to my New Found Glory bass tabs page

The Tablature is Copyright its respective owners.

Sign Up For My Newsletter
Subscribe | Unsubscribe

Site Map | Disclaimer | Privacy Policy | Media Kit | Submissions/Corrections

Website © 2000-2014 mattsmusicpage.com. All rights reserved.

Legal & DMCA: Matt's Music Page has been providing lyrics and tabs in a legal way, paying royalties each year to a few organizations. Then, all lyrics and tabs were removed from the site. Now, there's a new owner to the site, which purchased it August 26, 2014, and he is in negotiation to obtain licensing from BMI at the moment. If you have a specific DMCA request -- please do not hesitate to contact me via the contact button on top. I will do my very best to keep this site fully legal.

Get our toolbar!

 

GILBERT 1807 BANJO CLOCK Needs REPAIR NOT WORKING
$60.0
GILBERT 1807 BANJO CLOCK  Needs REPAIR NOT WORKING picture


WDW-Dixie Landing's Resort Mickey Mouse Playing the Banjo Pin
$6.0
WDW-Dixie Landing's Resort Mickey Mouse Playing the Banjo Pin picture


american banjo clock case e howard type
$0.99
american banjo clock case e howard type picture


1995 David Frykman Collection Angel Banjo Old Bearded Man Figurine Coyne's & Co
$38.95
1995 David Frykman Collection Angel Banjo Old Bearded Man Figurine Coyne's & Co picture


VINTAGE 4 5/8" WINGSPAN BRASS FINISH METAL EAGLE FOR BANJO CLOCK (WORTH A L00K)
$14.99
VINTAGE 4 5/8