Your One-Stop Source For
Music Lyrics
Bass and Guitar Tabs
and More...
>Music Lyrics Bass and Guitar Tabs

 

New Found Glory

The Tabs Are Below

Learn To Read Tab
Chords Handbook
Corrections & Additions
Get Official Tab
New Found Glory tabs @ 911Tabs

Intro:

these two things twice-----|

G|-----------------------| |

D|-----------------------| |

A|------00000-----00000--| |

E|-00000-----22222-------| |

faster here |

G|-----------------------| |

D|-----------------------| |

A|------00000-----0000000| |

E|-00000-----22222-------| |

 

verse:

G|------------------------------|

D|------------------------------|

A|----0-0---0-0---0-0---0000000-|

E|-0-0---2-2---0-0---2-2--------|

 

pre chorus

G|----------------------------|

D|----------------------------|

A|-------0-0000------0-0000---|

E|-0-0000------2-2222---------|

 

G|-------------------------|

D|-------------------------|

A|-------0-0000------0-0-0-|

E|-0-0000------2-2-2-------|

 

Chorus:

G|----------------------------------------|

D|----------------------------------------|

A|-----0000-3/444-----2242----------------|

E|-0000----------2222-----0000-2242-0020--|

 

G|----------------------------------------|

D|----------------------------------------|

A|-----0000-3/444-----2242----------------|

E|-0000----------2222-----0000-2242-0-0---|

 

these two things twice-----|

G|-----------------------| |

D|-----------------------| |

A|------00000-----00000--| |

E|-00000-----22222-------| |

faster here |

G|-----------------------| |

D|-----------------------| |

A|------00000-----0000000| |

E|-00000-----22222-------| |

 

verse:

G|------------------------------|

D|------------------------------|

A|----0-0---0-0---0-0---0000000-|

E|-0-0---2-2---0-0---2-2--------|

 

pre chorus

G|----------------------------|

D|----------------------------|

A|-------0-0000------0-0000---|

E|-0-0000------2-2222---------|

 

G|-------------------------|

D|-------------------------|

A|-------0-0000------0-0-0-|

E|-0-0000------2-2-2-------|

 

Chorus:3x

G|----------------------------------------|

D|----------------------------------------|

A|-----0000-3/444-----2242----------------|

E|-0000----------2222-----0000-2242-0020--|

last one

G|----------------------------------------|

D|----------------------------------------|

A|-----0000-3/444-----2242----------------|

E|-0000----------2222-----0000-2242-0-0---|

 

bridge:3 times

G|--4---4---4---4-|

D|-2-2/4-4h6-6p4--|

A|----------------|

E|----------------|

 

bridge continued:

G|--------------------------|

D|--------------------------|

A|----0-04-4------0-02-20-0-|

E|-0-0------2-20-0----------|

 

G|--------------------------|

D|--------------------------|

A|----0-04-4------0-02-20---|

E|-0-0------2-20-0----------|

 

Chorus:3x

G|----------------------------------------|

D|----------------------------------------|

A|-----0000-3/444-----2242----------------|

E|-0000----------2222-----0000-2242-0020--|

last one

G|----------------------------------------|

D|----------------------------------------|

A|-----0000-3/444-----2242----------------|

E|-0000----------2222-----0000-2242-0-0---|

 

end:

G|--------------------------------------|

D|--------------------------------------|

A|-----00-0----00-0----00-0----0000000--|

E|-00-0----22-2----00-0----22-2---------|

 

G|--------------------------------------|

D|--------------------------------------|

A|-----00-0----00-0----00-0----0000000--|

E|-00-0----22-2----00-0----22-2-------0-|

 

 

 

Return to my New Found Glory bass tabs page

The Tablature is Copyright its respective owners.

Sign Up For My Newsletter
Subscribe | Unsubscribe

Site Map | Disclaimer | Privacy Policy | Media Kit | Submissions/Corrections

Website © 2000-2014 mattsmusicpage.com. All rights reserved.

Legal & DMCA: Matt's Music Page has been providing lyrics and tabs in a legal way, paying royalties each year to a few organizations. Then, all lyrics and tabs were removed from the site. Now, there's a new owner to the site, which purchased it August 26, 2014, and he is in negotiation to obtain licensing from BMI at the moment. If you have a specific DMCA request -- please do not hesitate to contact me via the contact button on top. I will do my very best to keep this site fully legal.

Get our toolbar!

 

PRICE REDUCED Reborn Vinyl Jukebox Series Purse in shape of LP record
$14.99
PRICE REDUCED Reborn Vinyl Jukebox Series Purse in shape of LP record picture


Alice Adventures in Wonderland Lewis Carroll Russian USSR Soviet vinyl record
$24.88
Alice Adventures in Wonderland Lewis Carroll Russian USSR Soviet vinyl record  picture


RETRO 50'S VINTAGE VINYL RED TUNE TOTE 45 RECORD HOLDER BY PONYTAILS
$6.99
RETRO 50'S VINTAGE VINYL RED TUNE TOTE 45 RECORD HOLDER BY PONYTAILS picture


VINTAGE VINYL BABY BLUE TUNE TOTE 45 RECORD HOLDER BY PONYTAILS
$6.99
VINTAGE VINYL BABY BLUE TUNE TOTE 45 RECORD HOLDER BY PONYTAILS picture


Walt Disney's Songs from Bambi vinyl LP 1969
$6.99
 Walt Disney's Songs from Bambi vinyl LP 1969 picture