Your One-Stop Source For
Music Lyrics
Bass and Guitar Tabs
and More...
Music Lyrics Bass and Guitar Tabs

 

New Found Glory

The Tabs Are Below

Learn To Read Tab
Chords Handbook
Corrections & Additions
Get Official Tab
New Found Glory tabs @ 911Tabs

SECOND TO LAST - A New Found Glory

-------------------------------------------------------------------------------

 

Tabbed By: JaNf

 

Intro:

G --------------------------------------

D --------------------------------------

A ---7----------------------------------

E --------------------------------------

 

G --------------------------------------------------------

D --------------------------------------------------------

A ---7777----------7777---4444---7777---------------------

E ---------5555---------------------------5555---444-5-7--

 

Verse:

G ------------------------------------------------------------------------------------

D ------------------------------------------------------------------------------------

A ---77777----------------77777---------------77777--------------77777----------------

E ----------7--9----9--7--------7--9----5--7--------7--9----9--7--------7--9---55555--

 

Bridge:

G ------------------------------------------------------------------------------

D ------------------------------------------------------------------------------

A ---------------4444------------4444------------4444---------------------------

E ---00--55--00-------00--55--00------00--55--00------00--55--77777777-99999999-

 

Continued...

G --------------------------------------------------------

D --------------------------------------------------------

A --------------------------------------------------------

E ---11-11-11-11-11-11-11-11-11-11-11-11-11-11-11-11------

 

Repeat Intro

Repeat Verse Once

Repeat Bridge

Repeat Intro

 

Ending:

G -------------------------

D -------------------------

A -------------------------

E ---00000--5--7---------

 

End On:

A ---7--------

or

E ---0--------

 

 

Return to my New Found Glory bass tabs page

The Tablature is Copyright its respective owners.

Sign Up For My Newsletter
Subscribe | Unsubscribe

Site Map | Disclaimer | Privacy Policy | Media Kit | Submissions/Corrections

Website © 2000-2014 mattsmusicpage.com. All rights reserved.

Legal & DMCA: Matt's Music Page has been providing lyrics and tabs in a legal way, paying royalties each year to a few organizations. Then, all lyrics and tabs were removed from the site. Now, there's a new owner to the site, which purchased it August 26, 2014, and he is in negotiation to obtain licensing from BMI at the moment. If you have a specific DMCA request -- please do not hesitate to contact me via the contact button on top. I will do my very best to keep this site fully legal.

Get our toolbar!