Your One-Stop Source For
Music Lyrics
Bass and Guitar Tabs
and More...
>Music Lyrics Bass and Guitar Tabs

 

New Found Glory

The Tabs Are Below

Learn To Read Tab
Chords Handbook
Corrections & Additions
Get Official Tab
New Found Glory tabs @ 911Tabs

New Found Glory

Never Give Up

 

Transcribed By: Ryan Huntsman (IbanezBassMX)

Email: Ryan82184@aol.com

 

Standard Tunning

 

Intro (0:04)

G----------------

D----------------

A------------55--

E-5555-0~--------

 

Verse (0:09)

G-------------------------

D------------------------- X7

A-------7777--4444--2222--

E-5555--------------------

 

On 8th time (0:41)

G-----------------------

D-----------------------

A-------7777--4444--55--

E-5555------------------

 

Pre-Chorus (0:46)

G-----------------------------------------

D----------------------------------------- X2

A-----------------------------------------

E-22222222--00000000--55555555--00000000--

 

Chorus (1:05)

G----------------------------

D---------------------------- X3

A-------555-5--222-2--555-5--

E-555-5----------------------

 

On 4th time (1:18)

G---------------------------------

D---------------------------------

A-------555-5--222-2--555555550~--

E-555-5---------------------------

 

Verse (1:28)

G-------------------------

D------------------------- X2

A-------7777--4444--2222--

E-5555--------------------

 

On 3rd time (1:37)

G-----------------------

D-----------------------

A-------7777--4444--55--

E-5555------------------

 

Pre-Chorus (1:41)

G-----------------------------------------

D----------------------------------------- X2

A-----------------------------------------

E-22222222--00000000--55555555--00000000--

 

Chorus (2:00)

G----------------------------

D---------------------------- X3

A-------555-5--222-2--555-5--

E-555-5----------------------

 

On 4th time (2:14)

G---------------------------------

D---------------------------------

A-------555-5--222-2--555555550~--

E-555-5---------------------------

 

Solo (2:27)

G----------------------------------

D----------------------------------

A-55-5--------5-5555-2-2222-54240--

E-------5-5555---------------------

 

(2:33)

G------------------------

D------------------------

A-------5555--2-2--2255--

E-5555-------------------

 

Interlude (2:37)

G--------------------------

D-------------------------- X2

A-------55555-22222-55555--

E-55555--------------------

 

Chorus (2:46)

G----------------------------

D---------------------------- X3

A-------555-5--222-2--555-5--

E-555-5----------------------

 

On 4th time (3:00)

G---------------------------------

D---------------------------------

A-------555-5--222-2--555555550~--

E-555-5---------------------------

 

REST

 

0utro (3:08)

G------

D------

A-5-5--

E------

 

Thats it, I think everything is pretty close,

let me know if you have any changes ok.

 

 

Return to my New Found Glory bass tabs page

The Tablature is Copyright its respective owners.

Sign Up For My Newsletter
Subscribe | Unsubscribe

Site Map | Disclaimer | Privacy Policy | Media Kit | Submissions/Corrections

Website © 2000-2014 mattsmusicpage.com. All rights reserved.

Legal & DMCA: Matt's Music Page has been providing lyrics and tabs in a legal way, paying royalties each year to a few organizations. Then, all lyrics and tabs were removed from the site. Now, there's a new owner to the site, which purchased it August 26, 2014, and he is in negotiation to obtain licensing from BMI at the moment. If you have a specific DMCA request -- please do not hesitate to contact me via the contact button on top. I will do my very best to keep this site fully legal.

Get our toolbar!

 

DANZIG LYRICS of LEFT HAND Vol.II VEROTIK DANZIG BISLEY Signed by DANZIG LTD
$40.0
DANZIG LYRICS of LEFT HAND Vol.II VEROTIK DANZIG BISLEY Signed by DANZIG LTD   picture


CHRISTMAS POSTCARD: EMBOSSED, MUSIC, SALMOND, LYRICS, BURNSIDE, LEAST WE FORGET
$1.99
CHRISTMAS POSTCARD: EMBOSSED, MUSIC, SALMOND, LYRICS, BURNSIDE, LEAST WE FORGET picture


Antique 1900s knights templar Masonic Royal Arch Ode song lyrics handout RARE
$9.99
Antique 1900s knights templar Masonic Royal Arch Ode song lyrics handout RARE picture


LYRIC MOVIE THEATRE OAK STREET FARMINGTON, MN
$10.75
LYRIC MOVIE THEATRE OAK STREET FARMINGTON, MN picture


Pre-Linen Patriotic THE STAR-SPANGLED BANNER LYRICS ON POSTCARD AC0884
$6.99
Pre-Linen Patriotic THE STAR-SPANGLED BANNER LYRICS ON POSTCARD AC0884 picture