Your One-Stop Source For
Music Lyrics
Bass and Guitar Tabs
and More...
Music Lyrics Bass and Guitar Tabs

 

New Found Glory

The Tabs Are Below

Learn To Read Tab
Chords Handbook
Corrections & Additions
Get Official Tab
New Found Glory tabs @ 911Tabs

MY SOLUTION - A New Found Glory

-------------------------------------------------------------------------------

 

By:Kyle Maurice

 

>means strum rhyme by listening

 

Open riff play until words start

G|---------------------------------------------------------------------------|

D|---------------------------------------------------------------------------|

A|--------7>---5>------------------------------------------------------------|

E|--5>--------------2-3------------------------------------------------------|

 

Verse play 4 times

G|---------------------------------------------------------------------------|

D|---------------------------------------------------------------------------|

A|--5>-----------------------------------------------------------------------|

E|------5>--3>---------------------------------------------------------------|

 

Then play this twice

G|---------------------------------------------------------------------------|

D|---------------------------------------------------------------------------|

A|-------3-3--------------------------3-3------------------------------------|

E|--1-1-------3>--5-5--1-1--3>---1-1------3>---5-5-5--3--1-------------------|

 

Pause... Then play this until the verse starts again

G|---------------------------------------------------------------------------|

D|-----2-2-2-3-2-------5-3-2-2-3-2-------------------------------------------|

A|-3>------------3-3>--------------3-----------------------------------------|

E|-----------------------------------1>--------------------------------------|

 

And then play this 4 times

G|---------------------------------------------------------------------------|

D|---------------------------------------------------------------------------|

A|---5>----------------------------------------------------------------------|

E|-------5>--3>--------------------------------------------------------------|

 

The play this twice

G|---------------------------------------------------------------------------|

D|---------------------------------------------------------------------------|

A|-------3-3-------------------------3-3-------------------------------------|

E|--1-1-------3>--5-5--1-1--3>--1-1-------3>--5-5-5--3-1---------------------|

 

Then play this

G|---------------------------------------------------------------------------|

D|---------------------------------------------------------------------------|

A|-------7>--5>--------------------------------------------------------------|

E|---5>----------2-3---------------------------------------------------------|

 

Pause... Then play this until pause and end with this...

G|---------------------------------------------------------------------------|

D|-----2-2-2-3-2-------5-3-2-2-3-2-------------------------------------------|

A|--3>------------3-3>-------------3----------------------3------------------|

E|------------------------------------1>-------------------------------------|

 

 

Return to my New Found Glory bass tabs page

The Tablature is Copyright its respective owners.

Sign Up For My Newsletter
Subscribe | Unsubscribe

Site Map | Disclaimer | Privacy Policy | Media Kit | Submissions/Corrections

Website © 2000-2014 mattsmusicpage.com. All rights reserved.

Legal & DMCA: Matt's Music Page has been providing lyrics and tabs in a legal way, paying royalties each year to a few organizations. Then, all lyrics and tabs were removed from the site. Now, there's a new owner to the site, which purchased it August 26, 2014, and he is in negotiation to obtain licensing from BMI at the moment. If you have a specific DMCA request -- please do not hesitate to contact me via the contact button on top. I will do my very best to keep this site fully legal.

Get our toolbar!