Your One-Stop Source For
Music Lyrics
Bass and Guitar Tabs
and More...
>Music Lyrics Bass and Guitar Tabs

 

New Found Glory

The Tabs Are Below

Learn To Read Tab
Chords Handbook
Corrections & Additions
Get Official Tab
New Found Glory tabs @ 911Tabs

Band:New Found Glory

Song:Intro

Album:Catalyst

 

Tabbed by Kyle Gayne

 

G:----------------------------------|

D:----------------------------------|

A:-4-------4-------4----------------|x1

E:-------------------------2~~~-----|

 

G:----------------------------------|

D:----------------------------------|

A:-4444----4444----4444-------------|x2

E:-----5555----5555----555522225555-|

 

G:----------------------------------|

D:----------------------------------|

A:----------------------------------|x1

E:-44444444444444444444444444444444-|

 

G:----------------------------------|

D:----------------------------------|

A:-2222------------2222-------------|x1

E:-----444422225555----444422225-5--|

 

G;----------------------------------|

D:----------------------------------|

A:-2-22------------2-22-------------|x1

E:-----4-442-225-55----4-442-225-55-|

 

G:--------------------------------------|

D:--------------------------------------|

A:-4444----4444----4444------------4~---|x1

E:-----5555----5555----555522222222-----|

 

 

Return to my New Found Glory bass tabs page

The Tablature is Copyright its respective owners.

Sign Up For My Newsletter
Subscribe | Unsubscribe

Site Map | Disclaimer | Privacy Policy | Media Kit | Submissions/Corrections

Website © 2000-2014 mattsmusicpage.com. All rights reserved.

Legal & DMCA: Matt's Music Page has been providing lyrics and tabs in a legal way, paying royalties each year to a few organizations. Then, all lyrics and tabs were removed from the site. Now, there's a new owner to the site, which purchased it August 26, 2014, and he is in negotiation to obtain licensing from BMI at the moment. If you have a specific DMCA request -- please do not hesitate to contact me via the contact button on top. I will do my very best to keep this site fully legal.

Get our toolbar!

 

Laura Dunn Drums Player Figure
$26.77
Laura Dunn Drums Player Figure picture


HALLMARK BANG THE DRUM ALL DAY MAGIC SOUND ORNAMENT 2014
$0.99
HALLMARK BANG THE DRUM ALL DAY MAGIC SOUND ORNAMENT 2014 picture


Fyfe & Drum beer can
$0.99
Fyfe & Drum beer can picture


Christmas Ornament DisneyJungle Book Baloo with Wreath & Drum 4" tall
$15.6
Christmas Ornament DisneyJungle Book Baloo with Wreath & Drum 4


SALE NEW Hard Rock Cafe PIN SYDNEY KOALA Band DRUMMER Drum LE RARE
$18.6
SALE NEW Hard Rock Cafe PIN SYDNEY KOALA Band DRUMMER Drum LE RARE picture