Your One-Stop Source For
Music Lyrics
Bass and Guitar Tabs
and More...
Music Lyrics Bass and Guitar Tabs

 

New Found Glory

The Tabs Are Below

Learn To Read Tab
Chords Handbook
Corrections & Additions
Get Official Tab
New Found Glory tabs @ 911Tabs

Artist: New Found Glory

Song: I don't want to miss a thing

Album:

Tabber: i_play_bass@hotmail.com

 

Tuning EADG

 

Intro

G|-----------------------

D|-----------------------

A|5--4---2---------------

E|-----------3----2-----0

 

Fill

G|-------------

D|-------------

A|-------------

E|2---3---55555

 

 

Chorus

G|----------------------------

D|----------------------------

A|5555-4444-------------------

E|---------0000-2-3333/5------

 

Break into Verse

G|----------------

D|----------------

A|5555-4444------

E|---------0(hold)

 

Verse

G|--------------------------------------

D|--------------------------------------

A|5555-4444-2222-2222-------------------

E|-------------------3333-2222-0000-0000

 

End of verse

G|-------------------

D|-------------------

A|-------------------

E|2222-3333-5555-5555

 

Bridge

G|-------------------------------------------------------------------------------

D|-------------------------------------------------------------------------------

A|3333-3333-2222-2222-1111-1111-0000-0000-3333-3333-2222-2222-5555-5555-5555-5555

E|-------------------------------------------------------------------------------

 

 

 

 

Return to my New Found Glory bass tabs page

The Tablature is Copyright its respective owners.

Sign Up For My Newsletter
Subscribe | Unsubscribe

Site Map | Disclaimer | Privacy Policy | Media Kit | Submissions/Corrections

Website © 2000-2014 mattsmusicpage.com. All rights reserved.

Legal & DMCA: Matt's Music Page has been providing lyrics and tabs in a legal way, paying royalties each year to a few organizations. Then, all lyrics and tabs were removed from the site. Now, there's a new owner to the site, which purchased it August 26, 2014, and he is in negotiation to obtain licensing from BMI at the moment. If you have a specific DMCA request -- please do not hesitate to contact me via the contact button on top. I will do my very best to keep this site fully legal.

Get our toolbar!