Your One-Stop Source For
Music Lyrics
Bass and Guitar Tabs
and More...
>Music Lyrics Bass and Guitar Tabs

 

New Found Glory

The Tabs Are Below

Learn To Read Tab
Chords Handbook
Corrections & Additions
Get Official Tab
New Found Glory tabs @ 911Tabs

Band:New Found Glory

Song:I Don't Wanna Know

Album:Catalyst

 

Tabbed by Kyle Gayne

 

Intro(bass enters at 0:11)

G:----------------------------------|

D:----------------------------------|

A:---------3-3-3-3-7-7-7-7-3-3-3-3--|x2

E:-3-3-3-3--------------------------|

 

Verse

G:------------------------------------------------------------------|

D:------------------------------------------------------------------|

A:-----------------3-3-3-3-3-3-3-3-----------------3-3-3-3-3-3-3-3--|x2

E:-3-3-3-3-3-3-3-3-----------------3-3-3-3-3-3-5-5------------------|

 

Pre Chorus

G:----------------------------------|

D:----------------------------------|

A:-7~~~----5~~~----3~~~~~~~---------|x1

E:----------------------------------|

 

Chorus

G:----------------------------------|

D:----------------------------------|

A:---------3-3-3-3-7-7-7-7-3-3-3-3--|x2

E:-3-3-3-3--------------------------|

 

G:------------------------------------------------------------------|

D:---------------------9--------------------------------------------|

A:---------3-3-3-3-7-7---7-5-5-7-5---------3-3-3-3-7-7-7-7-5-5-5-5--|x2

E:-3-3-3-3-------------------------3-3-3-3--------------------------|

 

Repeat:

Verse

Pre Chorus

Chorus

 

Bridge

G:------------------------------------------------------------------|

D:------------------------------------------------------------------|

A:-3-3-3-3-3-3-3-3-5-5-5-5-5-5-5-5-3-3-3-3-3-2-0---5-5-5-5-5-5-5-5--|x1

E:-----------------------------------------------3------------------|

 

G:------------------------------------------------------------------|

D:------------------------------------------------------------------|

A:-3-3-3-3-3-3-3-3-7-7-7-7-5-5-5-5-3-3-3-3-3-3-3-3-5-5-5-5-5-5-5-5--|x1

E:------------------------------------------------------------------|

 

G:------------------------------------------------------------------|

D:------------------------------------------------------------------|

A:-------------------------------------------------3-3-3-3-3-3-3-3--|x1

E:-3~~~~~~~~~~~~~~~----------------3-3-3-3-3-3-3-3------------------|

 

Chorus

G:----------------------------------|

D:----------------------------------|

A:---------3-3-3-3-7-7-7-7-3-3-3-3--|x3

E:-3-3-3-3--------------------------|

 

G:----------------------------------|

D:----------------------------------|

A:---------3-3-3-3-7-7-7-7-5-5-5-5--|x1

E:-3-3-3-3--------------------------|

 

G:----------------------------------| |------------------------------|

D:----------------------------------| |------------------------------|

A:---------3-3-3-3-7-7-7-7-3-3-3-3--|x4|------------------------------|x1

E:-3-3-3-3--------------------------| |-3~~~~~~~~~~~~~~~-------------|

 

 

Return to my New Found Glory bass tabs page

The Tablature is Copyright its respective owners.

Sign Up For My Newsletter
Subscribe | Unsubscribe

Site Map | Disclaimer | Privacy Policy | Media Kit | Submissions/Corrections

Website © 2000-2014 mattsmusicpage.com. All rights reserved.

Legal & DMCA: Matt's Music Page has been providing lyrics and tabs in a legal way, paying royalties each year to a few organizations. Then, all lyrics and tabs were removed from the site. Now, there's a new owner to the site, which purchased it August 26, 2014, and he is in negotiation to obtain licensing from BMI at the moment. If you have a specific DMCA request -- please do not hesitate to contact me via the contact button on top. I will do my very best to keep this site fully legal.

Get our toolbar!

 

NEW Hallmark Lasting Lyrics “Workin’ for the Weekend” Loverboy's Cup Mug
$12.99
NEW Hallmark Lasting Lyrics “Workin’ for the Weekend” Loverboy's Cup Mug picture


Limoges 7" Plate Lyric, 22K Gold Trim
$8.0
Limoges 7


VINTAGE LYRIC PARFUM ENSEMBLE BY SEARS ROEBUCK AND CO RARE
$49.95
VINTAGE LYRIC PARFUM ENSEMBLE BY SEARS ROEBUCK AND CO RARE picture


Was frag' ich viel nach Geld und Gut Mozart lyrics Couple Peasants traditional
$4.99
Was frag' ich viel nach Geld und Gut Mozart lyrics Couple Peasants traditional picture


Royal Doulton Lyric HN 2757 Figurine
$79.0
Royal Doulton Lyric HN 2757 Figurine picture