Your One-Stop Source For
Music Lyrics
Bass and Guitar Tabs
and More...
>Music Lyrics Bass and Guitar Tabs

 

New Found Glory

The Tabs Are Below

Learn To Read Tab
Chords Handbook
Corrections & Additions
Get Official Tab
New Found Glory tabs @ 911Tabs

New Found Glory

The Great Houdini

 

Transcribed By: Ryan Huntsman (IbanezBassMX)

Email: Ryan82184@aol.com

 

Standard Tunning

 

Intro

G----------------------------------

D---------------------------------- X3

A----------------------------------

E-7-7-7-7-6-6-6-6-4-4-4-4-0-0-0-0--

 

G-------------------------------

D-------------------------------

A-------------------------------

E-7-7-7-7-6-6-6-6-4-4-4-4--0-0--

 

Verse

G--------------------------

D--------------------------

A--------------------------

E-7-7-7-6-6-6-4-4-4-0-0-0--

 

G-------------------------

D-------------------------

A-------------------------

E-7-7-7-6-6-6-4-4-4--0-0--

 

G--------------------------

D--------------------------

A--------------------------

E-7-7-7-6-6-6-4-4-4-0-0-0--

 

G-------------------------

D-------------------------

A-------------------------

E-7-7-7-6-6-6-4-4-4--0-0--

 

Pre-Chorus

G------------------------------------------

D------------------------------------------

A------------------------------------------

E-2-2-2-2-2-2-2-2-2-2-1-1-1-1-1-2-2-2-2-2--

 

Chorus

G-----------------

D----------------- X3

A-----------------

E-77-66-44-000-0--

 

G--------------------------

D--------------------------

A----------------------2~--

E-2-2-2-2-2-1-1-1-1-1------

 

Intro

G----------------------------------

D---------------------------------- X3

A----------------------------------

E-7-7-7-7-6-6-6-6-4-4-4-4-0-0-0-0--

 

G-------------------------------

D-------------------------------

A-------------------------------

E-7-7-7-7-6-6-6-6-4-4-4-4--0-0--

 

Verse

G--------------------------

D--------------------------

A--------------------------

E-7-7-7-6-6-6-4-4-4-0-0-0--

 

G-------------------------

D-------------------------

A-------------------------

E-7-7-7-6-6-6-4-4-4--0-0--

 

G--------------------------

D--------------------------

A--------------------------

E-7-7-7-6-6-6-4-4-4-0-0-0--

 

G-------------------------

D-------------------------

A-------------------------

E-7-7-7-6-6-6-4-4-4--0-0--

 

Pre-Chorus

G------------------------------------------

D------------------------------------------

A------------------------------------------

E-2-2-2-2-2-2-2-2-2-2-1-1-1-1-1-2-2-2-2-2--

 

Chorus

G-----------------

D----------------- X3

A-----------------

E-77-66-44-000-0--

 

G----------------------

D----------------------

A----------------------

E-2-2-2-2-2-1-1-1-1-1--

 

G-----------------

D----------------- X3

A-----------------

E-77-66-44-000-0--

 

G--------------------------

D--------------------------

A----------------------2~--

E-2-2-2-2-2-1-1-1-1-1------

 

G---------------------

D---------------------

A---------------------

E-00-0-7-6-4-0--00-0--

 

G-----------------

D----------------- X5

A-----------------

E--7-6-4-0--00-0--

 

Pre-Chorus

G------------------------------------------

D------------------------------------------

A------------------------------------------

E-2-2-2-2-2-2-2-2-2-2-1-1-1-1-1-1-1-1-1-1--

 

G----------------------------------------------

D----------------------------------------------

A----------------------------------------------

E-2-2-2-2-2--2-2-2-2-2-1-1-1-1-1-2-2-2-2-2-2~--

 

Chorus

G------------------

D------------------ X3

A------------------

E-77-66-44-000-0--

 

G----------------

D----------------

A----------------

E-2~---2-2-2--1--

 

Outro-Chorus

G-----------------

D----------------- X3

A-----------------

E-77-66-44-000-0--

 

G--------------------------------------

D--------------------------------------

A--------------------------------------

E-2-2-2-2-2-2-2-2--1-1-1-1--2-2-2-2-2--

 

Thats it, this is a cool song to play, and it sounds great.

 

 

Return to my New Found Glory bass tabs page

The Tablature is Copyright its respective owners.

Sign Up For My Newsletter
Subscribe | Unsubscribe

Site Map | Disclaimer | Privacy Policy | Media Kit | Submissions/Corrections

Website © 2000-2014 mattsmusicpage.com. All rights reserved.

Legal & DMCA: Matt's Music Page has been providing lyrics and tabs in a legal way, paying royalties each year to a few organizations. Then, all lyrics and tabs were removed from the site. Now, there's a new owner to the site, which purchased it August 26, 2014, and he is in negotiation to obtain licensing from BMI at the moment. If you have a specific DMCA request -- please do not hesitate to contact me via the contact button on top. I will do my very best to keep this site fully legal.

Get our toolbar!

 

Vintage Cracker Jack Miniature Harmonica Atom Made In Japan
$16.95
Vintage Cracker Jack Miniature Harmonica  Atom Made In Japan  picture


"SINGING ROUND THE PIANO-HARMONICA & GUITAR-MINNESOTA" RPPC REAL PHOTO P.C.
$19.95


ww2 german Harmonica
$20.1
ww2 german Harmonica picture


Vintage 8 note Harmonica Hersheypark PA
$9.99
Vintage 8 note Harmonica Hersheypark PA picture


Vintage Unused Xmas Greeting Card Santa Playing Harmonica Music to Puppy Dog
$34.0
Vintage Unused Xmas Greeting Card Santa Playing Harmonica Music to Puppy Dog picture