Your One-Stop Source For
Music Lyrics
Bass and Guitar Tabs
and More...
>Music Lyrics Bass and Guitar Tabs

 

New Found Glory

The Tabs Are Below

Learn To Read Tab
Chords Handbook
Corrections & Additions
Get Official Tab
New Found Glory tabs @ 911Tabs

THE GOONIES R GOOD ENOUGH - A New Found Glory

-------------------------------------------------------------------------------

 

By:Paul (skatepunk95@yahoo.com)

 

Intro:

G|---------------------------------------------------------------------------|

D|---------------------------------------------------------------------------|

A|----4-44-4-444---2---------------------------------------------------------|

E|---------------4-----------------------------------------------------------|

 

Verse:

"Here we are hanging on to strings of green and blues..."

G|---------------------------------------------------------------------------|

D|---------------------------------------------------------------------------|

A|----------------2--4-444-44-44444-2----------------------------------------|

E|-0-000-00-00000------------------------------------------------------------|

 

Pre-Chorus:

"Unspoken expectations-for first pre chorus"

"Old fashioned superstition-second pre chorus"

G|---------------------------------------------------------------------------|

D|---------------------------------------------------------------------------|

A|---------------------------------------------------------------------------|

E|----5----7----0---2-4--5----7----------------------------------------------|

 

Chorus:

"What's good enough for you..."

G|---------------------------------------------------------------------------|

D|---------------------------------------------------------------------------|

A|--------------66666666-----------------------------------------------------|

E|-----00000000----------55555555-77777777----------3333--55555--------------|

 

This is my first tab and i'm not to sure on teh chorus but it sounds right.

Email me with any corrections.

 

 

Return to my New Found Glory bass tabs page

The Tablature is Copyright its respective owners.

Sign Up For My Newsletter
Subscribe | Unsubscribe

Site Map | Disclaimer | Privacy Policy | Media Kit | Submissions/Corrections

Website © 2000-2014 mattsmusicpage.com. All rights reserved.

Legal & DMCA: Matt's Music Page has been providing lyrics and tabs in a legal way, paying royalties each year to a few organizations. Then, all lyrics and tabs were removed from the site. Now, there's a new owner to the site, which purchased it August 26, 2014, and he is in negotiation to obtain licensing from BMI at the moment. If you have a specific DMCA request -- please do not hesitate to contact me via the contact button on top. I will do my very best to keep this site fully legal.

Get our toolbar!

 

Vtg Original Goldscheider Musical Porcelain Figurine Plays "Blue Danube"
$25.0
Vtg Original Goldscheider Musical Porcelain Figurine Plays


Vintage Olds Brass Sheet Music Holder for Horn or Woodwind Instrument
$17.95
Vintage Olds Brass Sheet Music Holder for Horn or Woodwind Instrument picture


VTG UNUSED SEARS ROEBUCK & CO FULL FLAT SHEET SLEEP MUSIC SNOW WHITE RARE
$15.99
VTG UNUSED SEARS ROEBUCK & CO FULL FLAT SHEET SLEEP MUSIC SNOW WHITE RARE picture


Vintage 1960s Lefton China Umbrella Boy and Girl Music Box 6 1/8" Tall
$24.0
Vintage 1960s Lefton China Umbrella Boy and Girl Music Box 6 1/8


Musical Revolving Christmas Carousel Holiday Treasures Vintage Wind Up
$39.0
Musical Revolving Christmas Carousel Holiday Treasures Vintage Wind Up picture