Your One-Stop Source For
Music Lyrics
Bass and Guitar Tabs
and More...
>Music Lyrics Bass and Guitar Tabs

 

New Found Glory

The Tabs Are Below

Learn To Read Tab
Chords Handbook
Corrections & Additions
Get Official Tab
New Found Glory tabs @ 911Tabs

"The Goodbye Song"

New Found Glory

Nothing Gold Can Stay

 

"Last year..."

g----------------------------------

d----------------------------------

a-7777777777777--------------------

e---------------55555555-77777777--

 

"In the bright of day..."

g---------------------------------

d-------2222222-------------------

a-00-22---------00-22-44-222222---

e---------------------------------

 

"It's over now..."

g-------------------------------------------------------------------

d--------------------------------222222222--------------------------

a-444444444-00000000-4-222222222-----------444444444-000000000-4-2--

e-------------------------------------------------------------------

 

"I feel it's been such a long time..."

g--------------------------------------------------

d--------------------------------------------------

a------2-2222-0-0000-444-222-------2-2222-0000000--

e-0-00------------------------0-00-----------------

 

"It's hurting me from the inside..."

g------------------------------------------------------------

d------------------------------------------------------------

a--------------0-0000000---------------4-4444-2-2222--4---2--

e-2-222-4-4444------------2-222-4-4444-----------------------

 

Outro

g---------------------------------------

d---------------------------------------

a----------------00000000-22222222------

e-00000000000000---------------------0--

 

Matt Nielsen rx_bandit46@hotmail.com

 

 

 

Return to my New Found Glory bass tabs page

The Tablature is Copyright its respective owners.

Sign Up For My Newsletter
Subscribe | Unsubscribe

Site Map | Disclaimer | Privacy Policy | Media Kit | Submissions/Corrections

Website © 2000-2014 mattsmusicpage.com. All rights reserved.

Legal & DMCA: Matt's Music Page has been providing lyrics and tabs in a legal way, paying royalties each year to a few organizations. Then, all lyrics and tabs were removed from the site. Now, there's a new owner to the site, which purchased it August 26, 2014, and he is in negotiation to obtain licensing from BMI at the moment. If you have a specific DMCA request -- please do not hesitate to contact me via the contact button on top. I will do my very best to keep this site fully legal.

Get our toolbar!

 

Vintage Cobalt Blue Pressed Glass Banjo Salt & Pepper w Yellow Plastic Tops
$19.99
Vintage Cobalt Blue Pressed Glass Banjo Salt & Pepper w Yellow Plastic Tops picture


Vintage New Haven Banjo Clock
$325.0
Vintage New Haven Banjo Clock picture


NOS SMALL GOLD EAGLE CLOCK (BANJO) FINIAL X23
$14.99
NOS SMALL GOLD EAGLE CLOCK (BANJO) FINIAL  X23 picture


Spooky Village Halloween Animated Musical Skeleton Banjo Player Sound Motion NEW
$29.99
Spooky Village Halloween Animated Musical Skeleton Banjo Player Sound Motion NEW picture


4 BANJO CLOCK EAGLES ALL ARE IN EXCELLENT CONDITION
$5.99
4 BANJO CLOCK EAGLES ALL ARE IN EXCELLENT CONDITION picture