Your One-Stop Source For
Music Lyrics
Bass and Guitar Tabs
and More...
>Music Lyrics Bass and Guitar Tabs

 

New Found Glory

The Tabs Are Below

Learn To Read Tab
Chords Handbook
Corrections & Additions
Get Official Tab
New Found Glory tabs @ 911Tabs

THE GLORY OF LOVE - A New Found Glory

-------------------------------------------------------------------------------

 

Tabbed by Eron Surdam (xxxx3elevenxxxx@hotmail.com)

 

Verse 1: (Played fast)

G|-------12---| |------------| |-------12---| |----------|

D|--10-10-----| x4 |-------12---| x4 |--10-10-----| x2 |-----10---| x2

A|------------| |--10-10-----| |------------| |--8-8-----|

E|------------| |------------| |------------| |----------|

 

G|-------12---| |-----11-----11-|

D|--10-10-----| x2 |--9-9----9-9---|

A|------------| |---------------|

E|------------| |---------------|

 

Verse 2:

G|--------------------------|

D|--------------------------|

A|-3------------------------|

E|----5--6--3--4/-6\-4/-6---|

 

Chorus:

G|----------------------------------------------------------------|

D|----------------------------------------------------------------|

A|-3-----------3-----5----------3-3-------------5-----3-----------|

E|----1--0--3-----5-----3--5-5-------1-1--4--5-----3-------1--3---|

 

Bridge:

G|-------------------------------------------------------------| |------|

D|-------------------------------------------------------------|claping|------|

A|-------5--6--5--6\-5---------5--6--8---6---------------3-3---| part |33333-|

E|-1--4------------------1--4----------------3-----3-----------| |------|

 

Song Order:

Verse 1 and 2

Chorus

Verse 1 amd 2

Chorus

Bridge

Chorus

 

Listen to the song for the rhythm

 

 

 

Return to my New Found Glory bass tabs page

The Tablature is Copyright its respective owners.

Sign Up For My Newsletter
Subscribe | Unsubscribe

Site Map | Disclaimer | Privacy Policy | Media Kit | Submissions/Corrections

Website © 2000-2014 mattsmusicpage.com. All rights reserved.

Legal & DMCA: Matt's Music Page has been providing lyrics and tabs in a legal way, paying royalties each year to a few organizations. Then, all lyrics and tabs were removed from the site. Now, there's a new owner to the site, which purchased it August 26, 2014, and he is in negotiation to obtain licensing from BMI at the moment. If you have a specific DMCA request -- please do not hesitate to contact me via the contact button on top. I will do my very best to keep this site fully legal.

Get our toolbar!

 

Rare photo THE SIMPSONS Homer guitar ROLLING STONES Keith Richards Mick Jagger
$49.95
Rare photo THE SIMPSONS Homer guitar ROLLING STONES Keith Richards Mick Jagger  picture


1" Mick Jagger Rolling Stones Rock And Roll Cool Glass Metal Sewing Button JE54
$4.45
1


Assi Della Canzone 12 pics 4 pages from rare book Rolling Stones Paul Anka Ray C
$3.49
Assi Della Canzone 12 pics 4 pages from rare book Rolling Stones Paul Anka Ray C picture


Budweiser 1994 Rolling Stones Voodoo Lounge Tour neon insert ONLY
$140.0
Budweiser 1994 Rolling Stones Voodoo Lounge Tour neon insert ONLY picture


BILL WYMAN The Rolling Stones SIGNED A Life On The Road 1998 BOOK
$99.95
BILL WYMAN The Rolling Stones SIGNED A Life On The Road 1998 BOOK picture