Your One-Stop Source For
Music Lyrics
Bass and Guitar Tabs
and More...
>Music Lyrics Bass and Guitar Tabs

 

New Found Glory

The Tabs Are Below

Learn To Read Tab
Chords Handbook
Corrections & Additions
Get Official Tab
New Found Glory tabs @ 911Tabs

EX-MISS - A New Found Glory

-------------------------------------------------------------------------------

 

By: Jonathan R

eMail: jonathan@macpunk.com

 

Intro:

G|---------------------------------------------------------------------------|

D|---------------------------------------------------------------------------|

A|-------------3--3--3--3------------5--5--5--5------------------------------|

E|-3--3--3--3-----------------0-0-0---------------3--3--3--3--3--3--3--------|

 

Verse:

G|---------------------------------------------------------------------------|

D|---------------------------------------------------------------------------|

A|-----3-------3--------------0-3--0-3-0-3----------------0-3--0-3-0-3-------|

E|-3-------3-------3--0-3-0-3---------------0-3--0-3-0-3---------------------|

 

Pre Chorus:

G|---------------------------------------------------------------------------|

D|---------------------------------------------------------------------------|

A|-7--7--7--7----5--5--5--5----3--3--3--3----5--5--5--5----------------------|

E|---------------------------------------------------------------------------|

 

Pre Chorus part II

G|---------------------------------------------------------------------------|

D|---------------------------------------------------------------------------|

A|-7--7--7--7----5--5--5--5----3-/-2--3--5-----------------------------------|

E|---------------------------------------------------------------------------|

 

Chorus

G|---------------------------------------------------------------------------|

D|---------------------------------------------------------------------------|

A|-------------3--3--3--3----------5--5--5-----------------------------------|

E|-3--3--3--3--------------0-0-0---------------------------------------------|

 

Chorus part II

G|---------------------------------------------------------------------------|

D|---------------------------------------------------------------------------|

A|-------------3--3--3--3----------5--5--5--5------------------5--5--5--5----|

E|-3--3--3--3--------------0-0-0---------------8---8---8---8-----------------|

 

Chorus part III

G|---------------------------------------------------------------------------|

D|---------------------------------------------------------------------------|

A|-------------3--3--3--3-----------5--5--5----------------------------------|

E|-3--3--3--3---------------0-0-0------------3--3--3--3--3--3--3-------------|

 

Verse:

G|---------------------------------------------------------------------------|

D|---------------------------------------------------------------------------|

A|-----3-------3--------------0-3--0-3-0-3----------------0-3--0-3-0-3-------|

E|-3-------3-------3--0-3-0-3---------------0-3--0-3-0-3---------------------|

 

Pre Chorus:

G|---------------------------------------------------------------------------|

D|---------------------------------------------------------------------------|

A|-7--7--7--7----5--5--5--5----3--3--3--3----5--5--5--5----------------------|

E|---------------------------------------------------------------------------|

 

Pre Chorus part II

G|---------------------------------------------------------------------------|

D|---------------------------------------------------------------------------|

A|-7--7--7--7----5--5--5--5----3-/-2--3--5-----------------------------------|

E|---------------------------------------------------------------------------|

 

Chorus

G|---------------------------------------------------------------------------|

D|---------------------------------------------------------------------------|

A|-------------3--3--3--3----------5--5--5-----------------------------------|

E|-3--3--3--3--------------0-0-0---------------------------------------------|

 

Chorus part II

G|---------------------------------------------------------------------------|

D|---------------------------------------------------------------------------|

A|-------------3--3--3--3----------5--5--5--5------------------5--5--5--5----|

E|-3--3--3--3--------------0-0-0---------------8---8---8---8-----------------|

 

 

play this while the guitar plays the solo

G|---------------------------------------------------------------------------|

D|---------------------------------------------------------------------------|

A|-------------3--3--3--3----------5--5--5-----------------------------------|

E|-3--3--3--3--------------0-0-0---------------------------------------------|

 

then this after the solo is finished

G|---------------------------------------------------------------------------|

D|---------------------------------------------------------------------------|

A|-3---2---3---5-------------------------------------------------------------|

E|---------------------------------------------------------------------------|

 

Chorus

G|---------------------------------------------------------------------------|

D|---------------------------------------------------------------------------|repeat 4 times

A|-------------3--3--3--3----------5--5--5-----------------------------------|

E|-3--3--3--3--------------0-0-0---------------------------------------------|

 

Outro

G|---------------------------------------------------------------------------|

D|---------------------------------------------------------------------------|

A|-3--3--3--3---3-/-2--3--5--------------------------------------------------|

E|---------------------------------------------------------------------------|

 

Well, that's all. This is my second submission (i wrote a guitar tab of this song too). If

 

there's any mistake or you just want to say something to me then email me at jonathan@macpunk.com

 

.Ummm you have to listen to the cd for the timing (you'll notice).

 

 

Return to my New Found Glory bass tabs page

The Tablature is Copyright its respective owners.

Sign Up For My Newsletter
Subscribe | Unsubscribe

Site Map | Disclaimer | Privacy Policy | Media Kit | Submissions/Corrections

Website © 2000-2014 mattsmusicpage.com. All rights reserved.

Legal & DMCA: Matt's Music Page has been providing lyrics and tabs in a legal way, paying royalties each year to a few organizations. Then, all lyrics and tabs were removed from the site. Now, there's a new owner to the site, which purchased it August 26, 2014, and he is in negotiation to obtain licensing from BMI at the moment. If you have a specific DMCA request -- please do not hesitate to contact me via the contact button on top. I will do my very best to keep this site fully legal.

Get our toolbar!

 

CP5 BLATZ BEER SIGN LIGHTED BAR SIGNS 1 STAGE LIGHT BANJO MAN BARREL GUY STATUE
$229.99
CP5 BLATZ BEER SIGN LIGHTED BAR SIGNS 1 STAGE LIGHT BANJO MAN BARREL GUY STATUE picture


American Banjo Clocks Steven Philip Petrucelli , Kenneth A. Sposato
$199.0
American Banjo Clocks Steven Philip Petrucelli , Kenneth A. Sposato picture


Vintage Sessions Electric Banjo Wall Clock Mt Vernon Birdseye Maple Wood
$42.0
Vintage Sessions Electric Banjo Wall Clock Mt Vernon Birdseye Maple Wood picture


MC PHOTO aio-640 Danny O'Donnell Banjo Player
$9.99
MC PHOTO aio-640 Danny O'Donnell Banjo Player picture


VINTAGE SPRINGFIELD BANJO BAROMETER WEATHER STATION THERMOMETER HUMIDITY WALL
$9.99
VINTAGE SPRINGFIELD BANJO BAROMETER WEATHER STATION THERMOMETER HUMIDITY WALL picture