Your One-Stop Source For
Music Lyrics
Bass and Guitar Tabs
and More...
>Music Lyrics Bass and Guitar Tabs

 

New Found Glory

The Tabs Are Below

Learn To Read Tab
Chords Handbook
Corrections & Additions
Get Official Tab
New Found Glory tabs @ 911Tabs

Band:New Found Glory

Song:Doubt Full

Album:Catalyst

 

Tabbed by Kyle Gayne

 

Intro(bass enters at 0:07)

G:-----------------------------------------------------|

D:-----2--2--------2--2--------2--2--------2--2--------|

A:--2-4--4---2--2-4--4-4-2--2-4--4---2--2-4--4-4-2--2--|x1

E:-4--------4--4--------4--4--------4--4--------4--4---|

 

Rest until 0:23

 

G:--------|

D:--------|

A:--2--2--|x1

E:-4--4---|

 

Verse

G:--------------------------------------------------|

D:--------------------------------------------------|

A:-44-444------44-444----2-44-444------44-444-2--2--|x1

E:-------44-444------44-4--------44-444------4--4---|

 

G:--------------------------------------------------|

D:--------------------------------------------------|

A:-44-444------44-444----2-44-444------44-4442-2-2--|x1

E:-------44-444------44-4--------44-444-------------|

 

Pre Verse

G:--------------------------------------------------|

D:--2--2--------2--2--------2--2--------2--2--------|

A:-4--4---2--2-4--4-4-2--2-4--4---2--2-4--4-4-2--2--|x1

E:-------4--4--------4--4--------4--4--------4--4---|

 

Repeat:

Verse

 

Chorus 1

G:--------------------------------------------------|

D:--------------------------------------------------|

A:-------------------4-4444------------------4-4444-|x1

E:-5-55555-55550-0000------5-55555-55550-0000-------|

 

G:--------------------------------------------------|

D:-7-77779-9977-------------------------------------|

A:-------------------4-4444-------------------------|x1

E:-------------0-0000------5-55555-55557-77778-8-8--|

 

Repeat:

Pre Verse

Verse

 

Chorus 2

G:--------------------------------------------------|

D:--------------------------------------------------|

A:-------------------4-4444------------------4-4444-|x1

E:-5-55555-55550-0000------5-55555-55550-0000-------|

 

G:--------------------------------------------------|

D:-7-77779-9977-------------------------------------|

A:-------------------4-4444-------------------------|x1

E:-------------0-0000------5-55555-55557-77777-7777-|

 

Repeat:

Chorus 1

 

Rest until 2:24

 

Bridge

G:--------------------------------------------------|

D:--------------------------------------------------|

A:-4-4---------------------4-4----------------------|x1

E:-------5-5---4-44--2-22--------5-5---4-44--2-22---|

 

G:--------------------------------------------------|

D:--------------------------------------------------|

A:-4~~---------------------4~~----------------------|x1

E:-------5~~---4~~---2~~---------5~~---4~~---2~~----|

 

G:--------------------------------------------------------------|

D:--------------------------------------------------------------|

A:-4~~---------------------4~~----------------------------------|x1

E:-------5~~---4~~---2~~---------6~~---777777777777777777777777-|

 

Chorus 3

G:--------------------------------------------------|

D:--------------------------------------------------|

A:-------------------4-4444------------------4-4444-|x1

E:-5-55555-55550-0000------5-55555-55550-0000-------|

 

G:--------------------------------------------------|

D:-7-77779-9977-------------------------------------|

A:-------------------4-4444-------------------------|x1

E:-------------0-0000------5-55555-55557-77777-7-7--|

 

G:--------------------------------------------------|

D:--------------------------------------------------|

A:-------------------4-4444------------------4-4444-|x1

E:-5-55555-55550-0000------5-55555-55550-0000-------|

 

G:--------------------------------------------------------------|

D:-7-77779-9977-------------------------------------------------|

A:-------------------4-4444-------------------------------------|x1

E:-------------0-0000------5-55555-55557-77777-77777-77778-8888-|

 

Outro

G:--------------------------------------------------|

D:--------------2--2--------2--2--------2--2--------|

A:--------2--2-4--4-4-2--2-4--4---2--2-4--4-4-2--2--|x1

E:-------4--4--------4--4--------4--4--------4--4---|

 

 

Return to my New Found Glory bass tabs page

The Tablature is Copyright its respective owners.

Sign Up For My Newsletter
Subscribe | Unsubscribe

Site Map | Disclaimer | Privacy Policy | Media Kit | Submissions/Corrections

Website © 2000-2014 mattsmusicpage.com. All rights reserved.

Legal & DMCA: Matt's Music Page has been providing lyrics and tabs in a legal way, paying royalties each year to a few organizations. Then, all lyrics and tabs were removed from the site. Now, there's a new owner to the site, which purchased it August 26, 2014, and he is in negotiation to obtain licensing from BMI at the moment. If you have a specific DMCA request -- please do not hesitate to contact me via the contact button on top. I will do my very best to keep this site fully legal.

Get our toolbar!

 

16 Month 2011 Rolling Stones Pop Culture Calendar, Sealed
$0.99
16 Month 2011 Rolling Stones Pop Culture Calendar, Sealed picture


Zippo ZO28630 Rolling Stones Black Matte Lighter
$20.58
Zippo ZO28630 Rolling Stones Black Matte Lighter picture


16 Month 2008 Wall Calendar, Women Of Rock, Rolling Stones, Sealed
$0.99
16 Month 2008 Wall Calendar, Women Of Rock, Rolling Stones, Sealed picture


1996 Press Photo The Rolling Stones Rock and Roll Circus - cvp31625
$22.0
1996 Press Photo The Rolling Stones Rock and Roll Circus - cvp31625 picture


OLD LARGE HISTORIC PHOTO OF THE ROLLING STONES, MICK JAGGER etc c1962
$5.51
OLD LARGE HISTORIC PHOTO OF THE ROLLING STONES, MICK JAGGER etc c1962 picture