Your One-Stop Source For
Music Lyrics
Bass and Guitar Tabs
and More...
>Music Lyrics Bass and Guitar Tabs

 

New Found Glory

The Tabs Are Below

Learn To Read Tab
Chords Handbook
Corrections & Additions
Get Official Tab
New Found Glory tabs @ 911Tabs

BROKEN SOUND - A New Found Glory

-------------------------------------------------------------------------------

 

Tabbed by aLTiTuDe (altitude2k@hotmail.com)

 

Guitar solo for first half

 

"..and I've waited..."

G|-------------------------------|

D|-2-----------------------------|

A|----5-----3--------------------|

E|-------3-----------------------| 4 times

 

"...held this back for too long..."

G|-------------------------------|

D|-------------------------------|

A|-2--3--------------------------|

E|-------3-----------------------| 4 times

 

"...how can I stop the pain?"

G|-------------------------------|

D|-2-----------------------------|

A|----5-----3--------------------|

E|-------3-----------------------| 3 times

 

G|-------------------------------|

D|-2-----------------------------|

A|----5--------------------------|

E|-------3~(let ring)------------|

 

 

Return to my New Found Glory bass tabs page

The Tablature is Copyright its respective owners.

Sign Up For My Newsletter
Subscribe | Unsubscribe

Site Map | Disclaimer | Privacy Policy | Media Kit | Submissions/Corrections

Website © 2000-2014 mattsmusicpage.com. All rights reserved.

Legal & DMCA: Matt's Music Page has been providing lyrics and tabs in a legal way, paying royalties each year to a few organizations. Then, all lyrics and tabs were removed from the site. Now, there's a new owner to the site, which purchased it August 26, 2014, and he is in negotiation to obtain licensing from BMI at the moment. If you have a specific DMCA request -- please do not hesitate to contact me via the contact button on top. I will do my very best to keep this site fully legal.

Get our toolbar!

 

Vintage Jewelry Music Box with Thorens movement "Star Dust"
$7.99
Vintage Jewelry Music Box with Thorens movement


Otagiri Down By The Old Mill Stream Hand painted Music box Japan Vintage 1979
$29.99
Otagiri Down By The Old Mill Stream Hand painted Music box Japan Vintage 1979 picture


vintage sailor music box made in Taiwan Anchors Aweigh teddy bear sailor musical
$19.99
vintage sailor music box made in Taiwan Anchors Aweigh teddy bear sailor musical picture


Vintage 2 Angles Playing Instruments Water Globe Music Box Endless Love Tune
$24.88
Vintage 2 Angles Playing Instruments Water Globe Music Box Endless Love Tune picture


Vintage Wood Horse Carousel Music Box
$15.0
Vintage Wood Horse Carousel Music Box picture