Your One-Stop Source For
Music Lyrics
Bass and Guitar Tabs
and More...
>Music Lyrics Bass and Guitar Tabs

 

New Found Glory

The Tabs Are Below

Learn To Read Tab
Chords Handbook
Corrections & Additions
Get Official Tab
New Found Glory tabs @ 911Tabs

Tabbed By: Pat McGee (patmcgee86@yahoo.com)

 

New Found Glory

"The Blue Stare"

CD: Nothing Gold Can Stay

 

It's one of their more complex songs, but it's still relatively simple.

 

Part 1: (x12)

 

G------------

D------------

A-00-4-0-----

E--------2-00

 

 

Part 2: {0:22} (x8)

 

G------------

D------------

A-00-4-2-55--

E------------

 

 

{0:36} Then play Part 1 again (x8)

 

{0:50} Then play part 2 again (x7)

 

Then

A-0>>--------

 

 

Part 3: {1:05}

 

G-----------------------------------------------------------------------------

D-------------------------------2>>-0>>-------------------------------2>>-0-00

A-0--0-5-44-2--------0--0-5-44-2--------0--0-5-44-2--------0--0-5-44-2--------

E------------2>>-0>>-------------------------------2>>-0>>--------------------

 

 

 

Part 4: {1:19}

 

G------------------------------------------------------

D----2>----------------------2>------------------------

A-0>----0>-54----------54-0>----0>-54----------------54

E-------------2>-0>-2>----------------2-22-0-00-2-22---

 

 

 

{1:34} Go straight into Part 1 again (X8)

 

{1:48} Then play part 2 again (x7)

 

{2:02} Then play part 3 again

 

{2:17} Then play part 4 again

 

{2:30} Let Ring...

 

A-0------

 

Then play part 1 one more time

 

----------------------------------------------------------

 

And that's it. Please rate it if you like it. Email me if you have any questions.

 

Pat McGee (patmcgee86@yahoo.com)

 

 

Return to my New Found Glory bass tabs page

The Tablature is Copyright its respective owners.

Sign Up For My Newsletter
Subscribe | Unsubscribe

Site Map | Disclaimer | Privacy Policy | Media Kit | Submissions/Corrections

Website © 2000-2014 mattsmusicpage.com. All rights reserved.

Legal & DMCA: Matt's Music Page has been providing lyrics and tabs in a legal way, paying royalties each year to a few organizations. Then, all lyrics and tabs were removed from the site. Now, there's a new owner to the site, which purchased it August 26, 2014, and he is in negotiation to obtain licensing from BMI at the moment. If you have a specific DMCA request -- please do not hesitate to contact me via the contact button on top. I will do my very best to keep this site fully legal.

Get our toolbar!

 

Rolling Stones Original ALL Members Autographed Drumhead / Poster w/ COA
$1277.77
Rolling Stones Original ALL Members Autographed Drumhead / Poster w/ COA picture


Zippo Rolling Stones Picture 28428 Street Chrome Lighter
$17.86
Zippo Rolling Stones Picture 28428 Street Chrome Lighter picture


ROLLING STONES STICKY FINGERS ALUMINUM BEER BOTTLE QUILMES FROM ARGENTINA
$11.0
ROLLING STONES STICKY FINGERS ALUMINUM BEER BOTTLE QUILMES FROM ARGENTINA picture


ROLLING STONES PINBACK - VINTAGE / RARE
$9.0
ROLLING STONES PINBACK - VINTAGE /  RARE picture


NSI ROLLING STONES ROCK TUMBLER # 635 CREATE SEMI-PRECIOUS STONES & MAKE JEWERLY
$50.0
NSI ROLLING STONES ROCK TUMBLER # 635 CREATE SEMI-PRECIOUS STONES & MAKE JEWERLY picture