Your One-Stop Source For
Music Lyrics
Bass and Guitar Tabs
and More...
Music Lyrics Bass and Guitar Tabs

 

New Found Glory

The Tabs Are Below

Learn To Read Tab
Chords Handbook
Corrections & Additions
Get Official Tab
New Found Glory tabs @ 911Tabs

NEW FOUND GLORY

AT LEAST I'M KNOWN FOR SOMETHING

CATALYST

 

STANDARD TUNING

 

INTRO/CHORUS

g[---------------------]

d[---------------------]

a[-22222-2-2-2-22222-2-]

E[---------------------]

INTRO/CHORUS ending

g[--------------]

d[--------------]

a[--------------]

E[-2~-22-2-5~~~-]

VERSE

g[---------][---------------]

d[---------][---------------]

a[-22222-2-][-22222-2-2~~~~-]

E[---------][---------------]

 

PRE-CHORUS

g[-------------------------------]

d[-------------------------------]

a[-----000-222-444-----000-2~~~~-]

E[-444-------------444-----------]

 

REPEAT INTRO/CHORUS

REPEAT VERSE

REPEAT PRE-CHORUS

REPEAT INTRO/CHORUS

 

NEXT PART

g[--------------------]

d[--------------------]

a[----------------0---]

E[-00-00-00-00-22---0-]

 

PRE-CHORUS only guitar

 

REPEAT CHORUS

 

END CHORUS VARIATION

g[-------------------------]

d[-------------------------]

a[---------7-9-7-6-7-6-4-6-]

E[-2~-22-2-----------------]

ENDING(x3)

g[------------]

d[------------]

a[-2-2-2-2-22-]

E[------------]

g[-------]

d[-------]

a[-------]

E[-2~-5X-]

 

allright people.this sounds really good.i dont know if it's right because i mostly just went off of the guitar for this song.cccc yyyyaaaaa!!!!

 

 

Return to my New Found Glory bass tabs page

The Tablature is Copyright its respective owners.

Sign Up For My Newsletter
Subscribe | Unsubscribe

Site Map | Disclaimer | Privacy Policy | Media Kit | Submissions/Corrections

Website © 2000-2014 mattsmusicpage.com. All rights reserved.

Legal & DMCA: Matt's Music Page has been providing lyrics and tabs in a legal way, paying royalties each year to a few organizations. Then, all lyrics and tabs were removed from the site. Now, there's a new owner to the site, which purchased it August 26, 2014, and he is in negotiation to obtain licensing from BMI at the moment. If you have a specific DMCA request -- please do not hesitate to contact me via the contact button on top. I will do my very best to keep this site fully legal.

Get our toolbar!