Your One-Stop Source For
Music Lyrics
Bass and Guitar Tabs
and More...
>Music Lyrics Bass and Guitar Tabs

 

New Found Glory

The Tabs Are Below

Learn To Read Tab
Chords Handbook
Corrections & Additions
Get Official Tab
New Found Glory tabs @ 911Tabs

Band:New Found Glory

Song:All Downhill From Here

Album:Catalyst

 

Tabbed by Kyle Gayne

 

Intro

G:----------------------------------------|

D:----------------------------------------|

A:---4h5-0-00--4p2-2p0--4h5-0-00--4p2-2h4-|x2

E:-2------------------2-------------------|

 

Rest until 0:23

 

Pre Chorus

G:------------------| |------------------|

D:------------------| |------------------|

A:-----5555----2222-|x3|-----55552--------|x1

E:-2222----5555-----| |-2222-------------|

 

Chorus

G:----------------------------------|

D:----------------------------------|

A:---------5-555555-----------------|x3

E:-5-555555--------2-2222220-000000-|

 

G:------------------------------------------|

D:------------------------------------------|

A:---------5-555555-------------------------|x3

E:-5-555555--------2-22222200000---00000----|

 

Pre Verse

G:----------------------------------------|

D:----------------------------------------|

A:---4h5-0-00--4p2-2p0--4h5-0-00--4p2-2h4-|x1

E:-2------------------2-------------------|

 

Rest until 1:15

 

Repeat:

Pre Chorus

Chorus

 

Rest until 1:55

 

Bridge

G:--------------------------------------|

D:--------------------------------------|

A:---4h5-0-00--4p2~----4h5-0-00--4p2-22-|x1

E:-2-----------------2------------------|

 

G:-------------------------------------|

D:-------------------------------------|

A:---4h5-0-00--4p2~----4h5-0-00--------|x1

E:-2-----------------2-----------------|

 

Pre Chorus

G:------------------| |----------------------------------|

D:------------------| |----------------------------------|

A:-----5555----2222-|x4|----------------------------------|x1

E:-2222----5555-----| |-5~~~~~~~~~~~~~~~-----------------|

 

Rest until 2:39

 

G:------------------|

D:------------------|

A:------------------|x1

E:-00000---00000----|

 

Chorus

G:----------------------------------|

D:----------------------------------|

A:---------5-555555-----------------|x3

E:-5-555555--------2-2222220-000000-|

 

G:----------------------------------------------------------|

D:----------------------------------------------------------|

A:---------5-555555-----------------------------------------|x3

E:-5-555555--------2-22222200000---00000---00000---00000----|

 

Outro

G:------------------------------|

D:------------------------------|

A:------------4p2-2p0--4h5-0-00-|x1

E:-------------------2----------|

 

Return to my New Found Glory bass tabs page

The Tablature is Copyright its respective owners.

Sign Up For My Newsletter
Subscribe | Unsubscribe

Site Map | Disclaimer | Privacy Policy | Media Kit | Submissions/Corrections

Website © 2000-2014 mattsmusicpage.com. All rights reserved.

Legal & DMCA: Matt's Music Page has been providing lyrics and tabs in a legal way, paying royalties each year to a few organizations. Then, all lyrics and tabs were removed from the site. Now, there's a new owner to the site, which purchased it August 26, 2014, and he is in negotiation to obtain licensing from BMI at the moment. If you have a specific DMCA request -- please do not hesitate to contact me via the contact button on top. I will do my very best to keep this site fully legal.

Get our toolbar!

 

GOLD MINING EQUIPMENT LOT OF 2 PRESSURE HOSE BANJO FITTINGS" DREDGE SLUICE PUMP
$3.0
GOLD MINING EQUIPMENT LOT OF 2 PRESSURE HOSE BANJO FITTINGS


Vintage New Haven Mini Banjo Clock Movement
$29.99
Vintage New Haven Mini Banjo Clock Movement  picture


4&1/2" Couple with Banjo ? Figurine Occupied Japan
$9.88
4&1/2


VINTAGE PAIR OF BANJO CLOCK SIDE DECORATIONS WM240
$19.99
VINTAGE PAIR OF BANJO CLOCK SIDE DECORATIONS  WM240 picture


Vintage black Americana derogatory black man with a banjo cardboard cutout rare
$15.0
Vintage black Americana derogatory black man with a banjo cardboard cutout rare picture