Your One-Stop Source For
Music Lyrics
Bass and Guitar Tabs
and More...
Music Lyrics Bass and Guitar Tabs

 

New Found Glory

The Tabs Are Below

Learn To Read Tab
Chords Handbook
Corrections & Additions
Get Official Tab
New Found Glory tabs @ 911Tabs

ALL ABOUT HER - New Found Glory

-------------------------------------------------------------------------------

 

By: Nick George, Questions/Comments send to alphamid_w31@hotmail.com

 

INTRO (x2)

G|------------------------------------------------|

D|------------------------------------------------|

A|--------------22-2-222-----44-4-444-----00-00-2-|

E|-00-0-000-2-4----------2-4----------2-4---------|

 

VERSE (x4) "Let me practise this..."

G|------------------------------------------------|

D|------------------------------------------------|

A|--------------22-2-222-----44-4-444-----00-00-2-|

E|-00-0-000-2-4----------2-4----------2-4---------|

 

PRE CHORUS (x2) "So forget all of..."

G|-------------------------------------|

D|-------------------------------------|

A|-----------------2-000000-4-22222222-|

E|-000000-4-222222---------------------|

 

CHORUS (x4) "Sing about her, she..."

G|------------------------------------------------|

D|------------------------------------------------|

A|--------------22-2-222-----44-4-444-----00-00-2-|

E|-00-0-000-2-4----------2-4----------2-4---------|

 

VERSE

 

PRE CHORUS

 

CHORUS

 

BRIDGE (x4) "There is no other..."

G|-------------------|----------------------|

D|-------------------|----------------------|

A|-44444444-00000000-|-44444444-00000000-2~-|

E|-------------------|----------------------|

(Last Time)

 

REST

 

CHORUS

 

 

Return to my New Found Glory bass tabs page

The Tablature is Copyright its respective owners.

Sign Up For My Newsletter
Subscribe | Unsubscribe

Site Map | Disclaimer | Privacy Policy | Media Kit | Submissions/Corrections

Website © 2000-2014 mattsmusicpage.com. All rights reserved.

Legal & DMCA: Matt's Music Page has been providing lyrics and tabs in a legal way, paying royalties each year to a few organizations. Then, all lyrics and tabs were removed from the site. Now, there's a new owner to the site, which purchased it August 26, 2014, and he is in negotiation to obtain licensing from BMI at the moment. If you have a specific DMCA request -- please do not hesitate to contact me via the contact button on top. I will do my very best to keep this site fully legal.

Get our toolbar!