Your One-Stop Source For
Music Lyrics
Bass and Guitar Tabs
and More...
>Music Lyrics Bass and Guitar Tabs

 

New Found Glory

The Tabs Are Below

Learn To Read Tab
Chords Handbook
Corrections & Additions
Get Official Tab
New Found Glory tabs @ 911Tabs

BACK THAT ASS UP - A New Found Glory

-------------------------------------------------------------------------------

 

Transcribed by: Chris Jones

Email: Disturbed14@hotmail.com

 

------------------------------------------------------------------------------

------------------------------------------------------------------------------

-7--5--3------7--5--3------5--5--7--------------------------------------------

-7--5--3------7--5--3------5--5--7--------------------------------------------

-5--3--1------5--3--1------3--3--5--------------------------------------------

------------------------------------------------------------------------------

Distortion

 

----------------|-------------------------|-------------------------|---------

----------------|-------------------------|-------------------------|---------

-7-7--5--3-3--5-|-14----12-14-15-14-12----|-14----12-14-15-14-12----|---------

-7-7--5--3-3--5-|----12----------------15-|----12----------------15-|---------

-5-5--3--1-1--3-|-------------------------|-------------------------|---------

----------------|-------------------------|-------------------------|---------

Repeat 4x Gtr. 2 plays this.... then...

 

---------------------------|---------------------|----------------------------

---------------------------|---------------------|----------------------------

-14----12-14-15-14-12-10-9-|-7---5---3---5---7---|----------------------------

----12---------------------|-7---5---3---5---7---|----------------------------

---------------------------|-5---3---1---3---5---|-5--3--1--3--5--3--1--------

---------------------------|---------------------|----------------------------

not sure on this. Gtr. 1 also plays.. Fill (Distortion)

 

 

Return to my New Found Glory tabs page

The Tablature is Copyright its respective owners.

Sign Up For My Newsletter
Subscribe | Unsubscribe

Site Map | Disclaimer | Privacy Policy | Media Kit | Submissions/Corrections

Website © 2000-2014 mattsmusicpage.com. All rights reserved.

Legal & DMCA: Matt's Music Page has been providing lyrics and tabs in a legal way, paying royalties each year to a few organizations. Then, all lyrics and tabs were removed from the site. Now, there's a new owner to the site, which purchased it August 26, 2014, and he is in negotiation to obtain licensing from BMI at the moment. If you have a specific DMCA request -- please do not hesitate to contact me via the contact button on top. I will do my very best to keep this site fully legal.

Get our toolbar!

 

GOLD MINING EQUIPMENT LOT OF 2 PRESSURE HOSE BANJO FITTINGS" DREDGE SLUICE PUMP
$3.0
GOLD MINING EQUIPMENT LOT OF 2 PRESSURE HOSE BANJO FITTINGS


Vintage New Haven Mini Banjo Clock Movement
$29.99
Vintage New Haven Mini Banjo Clock Movement  picture


4&1/2" Couple with Banjo ? Figurine Occupied Japan
$9.88
4&1/2


VINTAGE PAIR OF BANJO CLOCK SIDE DECORATIONS WM240
$19.99
VINTAGE PAIR OF BANJO CLOCK SIDE DECORATIONS  WM240 picture


Vintage black Americana derogatory black man with a banjo cardboard cutout rare
$15.0
Vintage black Americana derogatory black man with a banjo cardboard cutout rare picture